rhcpfrance
Prochain concert dans :
Flash info :
Forum, à la une :
Tablature

basse Fight Like A Brave



Red Hot Chili Peppers
Fight like a brave
Tabbed by Truijllo

Main riff ( it' s hard to hear the real bass part 'cause is under guitar sound..
it seems like this...)
G |------------5h6------------------------------------------------------
D |----5h7-*------------------------------------------------------------
A |--0-------0----------------------------------------------------------
E |---------------------------------------------------------------------
S P P S P
variation 1
G |------------9---6----------------------------------------------------
D |----5h7-*------------------------------------------------------------
A |--0-------0---0------------------------------------------------------
E |---------------------------------------------------------------------
S P P S P S P
Chorus
G |---------------------------------------------------------------------
D |---9-9-9-7-----------9-9-9-7---------9-9-9-7----------9-9------------
A |------------9-8-7------------9-8-------------9-8-7-------------------
E |------------------5--------------5-6---------------5------5-0--------

Variation 2 ( second riff)
G |----------6h7------------6h7-----------------------------------------
D |---6h7-6---------6h7-*-------7-7p6-----------------------------------
A |-0------0------0-------0---------------------------------------------
E |---------------------------------------------------------------------
S P PS P S P P S P P P