rhcpfrance
Prochain concert dans :
Flash info :
Forum, à la une :
Tablature

basse Castles Made Of Sand (Live)



#----------------------------------PLEASE NOTE--------------------------------#
#This file is the author's own work and represents their interpretation of the#
#song. You may only use this file for private study, scholarship, or research.#
#-----------------------------------------------------------------------------#

Band : Red Hot Chili Peppers

Song : Castles Made Of Sand (live cover from The Master Jimmy Hendrix)

Album : Out in L.A, and some boots of the 89-90 era

Note : great version and a cool intro

Tabbed by coco the aware, mail me at funkybassflea@hotmail.com


Intro and chorus:
G|------------------------------------------------------|
D|-(5)-----------------/7-------------------------------|
A|----------------2-5-2----5-5-2-3-5-5----3-3-3h5p3-1-3-|
E|----3-3---3-3----------------------3h5----------------|

G|--------------------------------------------------------------------|
D|---------5-----3-3------5-5---------------5-----3-3------5-5--------|
A|-----3-----3h5------5h7-----1h3--------3-----3h5------5h7-----1h3---|
E|-3h5---3-----------------------3---3h5---3------------------------3-|


Verse:
G|----------------------------------------------|
D|-----------------------2--2-2-2-2-3---5---3-5-|
A|------------0--0-0-0-0--------------3---------|
E|-1--1-1-1-1-----------------------------------|

may be something is missing in the end of the verse :(


Guitar solo:
G|-----------------3-------------------3---------------|
D|-5-5-3-5-3-5-------5-3-5-3-5-3-5-------5-3-5-3-5-3-5-|
A|------------4-5-----------------4-5------------------|
E|-----------------------------------------------------|

G|----3-----------7-7/9/12-10--------|
D|-------5-5/7-7/9-------------12-10-|
A|-4-5-------------------------------|
E|-----------------------------------|