rhcpfrance
Prochain concert dans :
Flash info :
Forum, à la une :
Tablature

basse Organic Anti-Beat Box Band



Organic Anti-Beat Box Band
Red Hot Chili Peppers

I listened to a live tape of the band to figure out the guitar part for this
song. It was a lot clearer than on the album.


Verse
E5 D5 E5 G5 A5
|---------------------------------|---------------------------------|
|---------------------------------|---------------------------------|
|-/9-----9--x--9-------7--x-x--7--|-/9-----9--x--9------------------|
|-/9-----9--x--9-------7--x-x--7--|-/9-----9--x--9------------------|
|-/7-----7--x--7-------5--x-x--5--|-/7-----7--x--7-------5-5----7-7-|
|-----0--0-----0------------------|-----0--0-----0--0----3-3----5-5-|

Welcome friends to my thoughts The fax city 4 were four young men
of when

E5 D5 E5 A#5 A5 G5
|---------------------------------|---------------------------------|
|---------------------------------|---------------------------------|
|-/9-----9--x--9-------7--x-x--7--|-/9-----9--x--9------------------|
|-/9-----9--x--9-------7--x-x--7--|-/9-----9--x--9------------------|
|-/7-----7--x--7-------5--x-x--5--|-/7-----7--x--7----------8--7--5-|
|-----0--0-----0------------------|-----0--0-----0--0----0--6--5--3-|

Time has come, now we jam With the Uplift Mofo Party Plan


Chorus

B
We represent the Hollywood kids
B
Hollywood is where we live
D
We represent the Hollywood kids
E
Organic Anti-Beat Box Band


Here's the bass line under the solo:

|---------------------|--------------------|
|-/4--2---------------|--------------------|
|--------5----4--2----|------2-------------|
|-------------------5-|-5---------3--------|


If you would like to help me tab some more Red Hot Chili Peppers songs,
e-mail me at leet@magi.com.

- Dee






ORGANINC ANTI-BEATBOX BAND
RHCP
BY YT23W
End with one of these
Verse /========================\
G------------------------------|-----------|-------|-----------|
D-------2--2--5---7------2---2-|----5---7--|-------|----7---5--|
A------------------------------|-----------|-------|-----------|
E-00--0--0------3---00-0--0----|-33---55---|-6-5-3-|-55---33---|

Chorus:
G----4-4-4-------4-4-4-------4-4-4-------4-4-4--------------------------------|
D-----------------------------------------------------------------------------|
A-2--------2--2--------2--2--------2--2--------5--5--4-5--7---5-7-7-5-7-7-5-7-|
E-----------------------------------------------------------------------------|

Solo x3
G--------------------------|
D-4--2---------------------|
A-------5--4--2-------2----|
E----------------5-5-----3-|

With help from Fidget(bassist of Half Moon)'s tab
(I still have Fidget's chorus)

For more bass tabs go to www.geocities.com/yt23w/index.html