rhcpfrance RhcpFrance
Concert du jour :
Louisville, KY - U.S.A
Sélection du moment :
Tablature

guitare Strip My Mind



Strip My Mind Tab by Red Hot Chili Peppers, www.Ultimate-Guitar.Com

Band: Red Hot Chili Peppers
Title: Strip My Mind
Album: Stadium Arcadium
Tabbed by: A.Mazzei

^= bend from the number before ^ to number after ^
v= bend backwards. eg: bend back down to number previous
h= hammer on to next note


(INTRO)

Am Em F C Dm Am C G

Am Em F C Dm Am C G



00:33
(VERSE 1)

Am Em F C Dm Am C G

Am Em F C Dm Am C G



01:02
(BRIDGE)

Am C Am



01:12
(CHORUS)

Am G F

Am G F

Am G F



01:34
(INTRO 2)

Am Em F C Dm Am C G



01:49
(VERSE 2)

Am Em F C Dm Am C G

Am Em F C Dm Am C G



02:17
(BRIDGE 2)

Am C Am



02:28
(CHORUS)

Am G F

Am G F

Am G F


02:49
(SOLO)

e|-5---|-5---|--------------------------------------------------|
B|-5---|-5---|--------------------------------------------------|
G|-7^9-|-7v9-|-5-5--5---5h7-7^9-9v7-5---5h7-7^9-9v7-5---7^9-9v7-|
D|-----|-----|--------7---------------7---------------7---------|
A|-----|-----|--------------------------------------------------|
E|-----|-----|--------------------------------------------------|



e|-12----15^17-17v15-12-15-----------------------------|
B|-15^17-------------------15^17-17v15-13-13--13----15-|
G|-----------------------------------------------14----|
D|-----------------------------------------------------|
A|-----------------------------------------------------|
E|-----------------------------------------------------|



e|-------------------------------------------------------|
B|-15^17-17v15-13----15-15^17-17v15-13----15-17-17-18-15-|
G|----------------14-------------------14----------------|
D|-------------------------------------------------------|
A|-------------------------------------------------------|
E|-------------------------------------------------------|



03:18
(VERSE 3)

Am Em F C Dm Am C G



03:32
(BRIDGE 3)

Am C Am



(CHORUS)

Am G F

Am G F

Am G F

Am G F


thestrokes1@hotmail.com