rhcpfrance
Prochain concert dans :
Flash info :
Forum, à la une :
Tablature

batterie This Is A Place



This is a very easy song and not very hard to tab. Just keep the beat and listen for teh break in the middle of the song.

G |------------------------------------------------|
A |-----------10-10----------------10-10-----------|
D |--12-12-12-------10-10-10-8-8-8-------12-12-12--|
E |------------------------------------------------|

G |------------------------------------------------|
A |------------------------------------------------|
D |-----------12-12----------------10-10-----------|
E |--10-10-10-------13-13-13-8-8-8-------10-10-10--|