rhcpfrance RhcpFrance
Concert du jour :
Louisville, KY - U.S.A
Sélection du moment :
Tablature

guitare Scar Tissue



SCAR TISSUE

from "Californication"
Music by KiedisFleaFruscianteSmith
Warner Bros Music 1999
BUY THE TAB BOOK!>

transcribed by Wim

Cute studio intro:
F C Dm C

e:|-----5-5-5----5----------------------------|
B:|-----------------5--5/6--6--6-6--6\5-------|
G:|-------------------------------------------|
D:|--3---3-3-3--------------------------------|
A:|-----------------3--3/5----5-5-5-----3-----|
E:|-------------------------------------------|



F Dm

e:-----5-5-5--5-3---------------------------|
B:-----------------5/6--(6)--8p6--8p6--5/6--|
G:------------------------------------------|
D:--3---3-3-3-------------------------------|
A:-----------------3/5--(5)-----------------|
E:------------------------------------------|


First verse riff:
D C Dm7 C

e:-----5-5-5---5----------------------------|
B:---------------5--5/6--6--6-6-6---6\5-----|
G:------------------------------------------|
D:--3---3-3-3-------------------------------|
A:---------------3--3/5----5-5-5-5--5\3--3--|
E:------------------------------------------|
Scar tissue that I wish you saw...


F Dm

e:-----5-5-5---5-8--3-3/5--5---5-3-------|
B:---------------------------------6-5---|
G:---------------------------------------|
D:--3---3-3-3----------------------------|
A:------------------3-3/5-----5-5-5-5-3--|
E:---------------------------------------|


Chours: strum these chords
you know the rhythm
D C Am
e:---5---------------1------------|
B:---6--------5------3-----5------|
G:---5-strum--5------2-----5--x2--|
D:---3--etc.--5------0-----5------|
A:------------3------------3------|
E:--------------------------------|
With the birds I share...


More verse:
F C
D
e:-----5-5-5---5-------------------------|
B:----------------5-5/6--6--6-6---6\5----|
G:---------------------------------------|
D:--3---3-3-3----------------------------|
A:----------------3-3/5----5-5-5------3--|
E:---------------------------------------|
0:33 mmm... pushup bra... :)

to chorus riff -->


e:--------------10--8--------------13--12--10--8---|
B:-----10-10-10-------8-8/10--10-------------------|
G:-------------------------------------------------|
D:-------------------------------------------------|
A:--8----8--8--8--8--------------------------------|
E:--------------------8-8/10----10---10--10--10--8-|
...to lick your heart and taste your health

Slide solo no. 1 (guitar 2 strum chords in background)

Am C Am Am E F
e:----------------------------------------------------------------------|
B:--13\\\(10)-10------10\\\(8)-8-----8///(10)-10----10-10///12-12///13--|
G:----------------------------------------------------------------------|
D:----------------------------------------------------------------------|
A:----------------------------------------------------------------------|
E:----------------------------------------------------------------------|
0:59 To verse riff -->>

Slide solo no. 2


e:------------------------------------------------------------|
B:--///15---15\\\13---13\\\10--------10\\\8----12/13\\\10-----|
G:------------------------------------------------------------|
D:------------------------------------------------------------|
A:------------------------------------------------------------|
E:------------------------------------------------------------|
1:58




e:----------------------------|
B:--///15---/17--17\\\10--10--|
G:----------------------------|
D:----------------------------|
A:----------------------------|
E:----------------------------|
2:09

to verse riff -->


e:---------------------------------------------|
B:--12/13\\\8---13\\\10-------///15///17///18--|
G:---------------------------------------------|
D:---------------------------------------------|
A:---------------------------------------------|
E:---------------------------------------------|
2:21

Slide solo no. 3 (the really long one)


e:---///17-----17\\\15-15-----/17\\\12-12-----12/13\\\10-10---|
B:------------------------------------------------------------|
G:------------------------------------------------------------|
D:------------------------------------------------------------|
A:------------------------------------------------------------|
E:------------------------------------------------------------|
2:46




e:----(10)\8-8/10-10\8-8/10-10----10\8\5---5/(8)\3---3/(8)\5---|
B:-------------------------------------------------------------|
G:-------------------------------------------------------------|
D:-------------------------------------------------------------|
A:-------------------------------------------------------------|
E:-------------------------------------------------------------|





e:-------------//5--5--5--5---------------------------------|
B:---3/(5)\3-----------------3/(5)\3---3/(5)\1--------------|
G:------------------------------------------------5/(7)\\2--|
D:----------------------------------------------------------|
A:----------------------------------------------------------|
E:----------------------------------------------------------|
*yawn*




e:---//5---13\\12---8/(10)\\5----(5)//(8)\\(3)//(5)--|
B:---------------------------------------------------|
G:---------------------------------------------------|
D:---------------------------------------------------|
A:---------------------------------------------------|
E:---------------------------------------------------|



tremolo shake the whammy bar a bit
v v
e:----(5)~~~~~~---/\/\/\/-----------------------|
B:----------------------------------------------|
G:-------------------------------------[4]------|
D:----------------------------------------------|
A:--------------------------------------^-------|
E:--------------------------------------|-------|
this short note unintentional? ------/ :)



Oh yeah, and:
Rhythm guitar under 2nd and 3rd slide
solos, it's not under the first one though

e:--------------------------------|
B:--------------------------------|
G:----7----7----7---7---7------7--|
D:--------------------------------|
A:--5---5---5-5---5---5---5--5----|
E:--------------------------------|
1:59



e:---------------------------------------------------|
B:---------------------------------------------------|
G:---5-----5---5----5-----5---5-----7----7---7-------|
D:----------------------------------------------etc.-|
A:-3---3----3-3---3----3---3-3--3/5---5---5-5--------|
E:---------------------------------------------------|


and this when the solo ends:

e:---------------------------------|
B:---------------------------------|
G:-------7---7-----9---9--9/10-----|
D:---------------------------------|
A:-----5---5---5/7---7----7/8------|
E:---------------------------------|
-fin-