rhcpfrance
Prochain concert dans :
Flash info :
Forum, à la une :
Tablature

guitare My Friends



"My Friends" by Red Hot Chili Peppers
>From December 1995 Guitar World Magazine


G:--10h12--10----------10---10----------------9-------9--10---10-------------|
D:-------------12---12-------------------10------12------------------------10|
A:------------------------------10---10/--------------------------10---10----|
E:---------------------------------------------------------------------------|

1. My friends are so depressed....
G:-----------------10---10-------------------------------------9--10---10----|
D:---10---12---12------------12-----12--------10------10--12-----------------|
A:--------------------------------------10h12------12----------------------10|
E:---------------------------------------------------------------------------|


G:------10h12-10h12--10--9------------------10---9--10--12-------------------|
D:--------------------------12--12--12--12-------------------12--10----12----|
A:---10----------------------------------------------------------------------|
E:---------------------------------------------------------------------------|


G:-----10----------------------------|
D:-12--------------------------------|
A:---------8---0---10---R------3--4--|
E:--------------------------5--------|

%Sign
*verses
G:-----------------------------------------------------------------4/5--4----|
D:o----------3----3---5----5--------------------2---3---3-4-5---5-----------7|
A:o--5----5---------5---------3--3------3-4-5--------------------------------|
E:------------------------------------5--------------------------------------|


G:--------------------------------|
D:----------3-------3--5----5-----|
A:--5----5-------5-------------3--|
E:--------------------------------|


*Chorus
G:---------------------------------------------------------------------------|
D:--------5----------7------7--7-----------------7--7--7--7----7---7---------|
A:-3---3-------0--0-----0-0-------3----3-3h5--5--------------0---0-------3---|
E:---------------------------------------------------------------------------|
I love all of you...


3rd time to CODA
(dont take repeat)
G:------------------9--9-9-9\----------------------------------------|
D:----5---------7------------------------7--------7--7--7--7--7--7--o|
A:-3--------0-----------------3---3--3/5----5--0--------------------o|
E:-------0-----------------------------------------------------------|


*Guitar Solo
G:---------------------------------------------------------------------------|
D:--------------------------------12----10-12-10-9---------------------------|
A:---5--5--5--7--8--8--8-9--10-10----10-------------12\-5----5--7--8---R---8-|
E:---------------------------------------------------------------------------|


G:---------------------------------------------------------------------------|
D:----------12---------------------------------------------------------------|
A:---10--10----0-2--3--3--r--3--4--5--5--5--7--8--8--8--8----10-10-10-0-2-3--|
E:10------------------------------------------------------10-----------------|


G:---------------------------------------------------------|
D:---------------------------------------------------------|
A:-3--r----3-4-5--5--5--7--8--8--r--8--9--10--10--10---8---|
E:-------5-------------------------------------------------|


Bridge
G:---------------------------------------------------------------------------|
D:---------------------------------------------------------------------11----|
A:--7--7--7--7--7--7--7--7--10-10-10-10-10-10-10-10--9--9--9--9--9--9------9-|
E:---------------------------------------------------------------------------|


G:---------------------------------------------------------------------------|
D:-------10-------10----10---------------------------------------------------|
A:-8--8-----8--8-----8--------------------10------------------------9--------|
E:-------------------------8--8--8--8--8-------8-10--7--7--7--7--7-------7\--|

D.S. % al
CODA
G:---------------------------------------------------|
D:----------------------------------------10---------|
A:-------------------------8--8--8--8--8-----8--7\5--|
E:1--1--1--1--1--1--1--1/----------------------------|


|
-O- CODA
|
G:---------------------------------------------------------------------------|
D:--------------------------5--5--5--5--9/10-10-10-10-10-10------------------|
A:--5--5--5--5--8--8--8--8-----------------------------------5--5--5--5--8--8|
E:---------------------------------------------------------------------------|


G:---------------------------------------------------------------------------|
D:--------5--5--5--5--9/10-10-10-10-10-10-10---------------------------------|
A:--8--8--------------------------------------5--5--5--5--3--3--3--3--2--2--2|
E:---------------------------------------------------------------------------|


G:---------------------------------------------------------------------------|
D:-----3--3--3--3-------------------------------5--5--5--5--9/10-10-10-10-10-|
A:--2--------------5--5-5--5--5--7/8-8-8-8-8-8-------------------------------|
E:---------------------------------------------------------------------------|


G:---|-------------------|--19--19--19------------------19--|
D:10-|-0-----------------|----------------------------------|
A:---|-------------------|----------------0-----------------|
E:---|-------------------|----------------------------------|
/----------------------------------------\
| ____ ____ |
| ( `--' .-' _T_T_T_T_ |
| |8| O O |||||||||||||||||||[o o o o/ |
| (__,--.____\ `~~~`--' |
| from the desk of jaco pastorius.. |
| jazzbass@cfw.com |
| http://www.vt.edu:10021/A/acanterb/ |
\----------------------------------------/