rhcpfrance
Prochain concert dans :
Flash info :
Forum, à la une :
Tablature

basse Out In L.A (Demo Version)



Out in L.A.
Tabbed by Truijllo

|-----------------------------------|-------------------------------------|
|---------------------------------5-|-------------------------------------|
|--7--5--------7--5p4h5p4h5---5h7---|-7-5-----5-7-5-4-5-----17-\----------|
|--------6-7------------------------|-----6-7-----------------------------|
SOLO
|---------6h7--------------7h9-------9-----77-----------------------------|
|---------------------7h9---------------------------5---------------------|
|----5h7-------5-5h7------------**-----*--------5h7---7-------------------|
|-0-----------------------------------------------------------------------|
S S P S S S P SS P S PP S P S
|-----------------------------------------7-------10--------12---14^------|
|-------------------------------------------------------------------------|
|-----------------------------*-*-5h7p5------5-5------8-8-----------------|
|--0h3---*-3/5--*-5/7--*-7/9----------------------------------------------|
S S S S S S S S S S P S S P S S P P


S = SLAP P = POP
h = HAMMER ON p = PULL OFF
^ = BEND