rhcpfrance
Prochain concert dans :
Flash info :
Forum, à la une :
Tablature

guitare Police Helicopter



Red Hot Chili Peppers
pOLICE hELICOPTER
tABBED bY Truijllo

Verse 1
G |---------------------------------------------------------------------
D |-----5-5-------------------------------------------------------------
A |---------------------------------------------------------------------
E |--3------3-----------------------------------------------------------
S P P S
Verse 2
G |---------------------------------------------------------------------
D |----5-------8-8------------------------------------------------------
A |---------------------------------------------------------------------
E |--3---3-3/6----------------------------------------------------------
S P S S P P