rhcpfrance
Prochain concert dans :
Flash info :
Forum, à la une :
Tablature

basse Out In L.A.



Out in L.A.
Tabbed by Truijllo

|-----------------------------------|-------------------------------------|
|---------------------------------5-|-------------------------------------|
|--7--5--------7--5p4h5p4h5---5h7---|-7-5-----5-7-5-4-5-----17-\----------|
|--------6-7------------------------|-----6-7-----------------------------|
SOLO
|---------6h7--------------7h9-------9-----77-----------------------------|
|---------------------7h9---------------------------5---------------------|
|----5h7-------5-5h7------------**-----*--------5h7---7-------------------|
|-0-----------------------------------------------------------------------|
S S P S S S P SS P S PP S P S
|-----------------------------------------7-------10--------12---14^------|
|-------------------------------------------------------------------------|
|-----------------------------*-*-5h7p5------5-5------8-8-----------------|
|--0h3---*-3/5--*-5/7--*-7/9----------------------------------------------|
S S S S S S S S S S P S S P S S P P


S = SLAP P = POP
h = HAMMER ON p = PULL OFF
^ = BEND

ANOTHER TAB:
------------

Band: The Red Hot Chili Peppers
Song: Out In L.A.
Album: The Red Hot Chili Peppers
Tabbed By: Mark Gentz

Note: this version is slightly different than the Out in L.A. demo version

main part
G:----------------------------------------------------------
D:------------------------------------4---------------------
A:--7-5-----------5-7---5-5-4---4-5-7-----------------------
E:--------7-X-7---------------------------------------------


G:----------------------------------------------------------
D:----------------------------------------------------------
A:--7-5-----------5-7---5-5-4-5-----------------------------
E:--------7-X-7---------------------------------------------


bass solo*
G:------------7h9---------------7h9-------------------------
D:------------------------7h9-X-----------------------------
A:------5h7-X-------5h7-X-----------------------------------
E:--0-------------------------------------------------------


G:----9--7-7---------7--------------------------------------
D:-------------7h8h9---9------------------------------------
A:----------------------------------------------------------
E:--0-------------------------------------------------------

^ ^ ^
G:--------------------7------10---------12-------12-13-14---
D:----------------------------------------------------------
A:--------------5h7-5------8----8----10----10---------------
E:--0-4-5-6-7-----------------------------------------------


*= notes in bass solo on the E and A strings are slapped,
those on D and G are plucked
h= hammer on
^= bend 12 13 14 simultaneously

tabbed by: mgentz@alum.uhs.edu