rhcpfrance
Prochain concert dans :
Flash info :
Forum, à la une :
Tablature

basse Mommy Where's Daddy



Red Hot Chili Peppers
Mommy where's daddy?
tabbed by Truijllo


Main riff (*2 )
G |---------------------------------------------------------------------
D |----5h6h7^0---0-3-3-0----5h6h7^0---/7-5-3----------------------------
A |--5---------2--------------------2-----------------------------------
E |---------------------------------------------------------------------

Some variations
1....
G |---------------------------------4-5-----5h7p5-----------------------
D |----5h6h7^0---0-3-3-0----5h6h7^0-----5h7-----------------------------
A |--5---------2--------------------------------------------------------
E |---------------------------------------------------------------------
2....
G |---------------------------------9-10-7------------------------------
D |----5h6h7^0---0-3-3-0----5h6h7^0---------10-7------------------------
A |--5---------2--------------------------------------------------------
E |---------------------------------------------------------------------
3....
G |---------5---5---5-7---------5---5-4---------------------------------
D |-------5---7---7---------5-7---5-----5-------------------------------
A |--3h5----------------3h5---------------------------------------------
E |---------------------------------------------------------------------