rhcpfrance
Prochain concert dans :
Flash info :
Forum, à la une :
Tablature

basse Stone Cold Bush



STONE COLD BUSH
By the Red Hot Chili Peppers
Tabbed by Martin Peters and Anthony M.
Bass
Moderately fast

Intro:
G-|-----|-------------------|---5--5-3------------|
D-|-5---|---2--3--4--5------|-5---5---------------|
A-|-----|-------------------|-------------3--3-1--|
E-|-----|-------------------|-----------3---3-----|

Verse 1 and 4:
G-|------------|-------------|-------------|------------|
D-|---------5--|----------5--|----------5--|-x-2--3--4--|
A-|------------|-------------|-------------|------------|
E-|-3-3-3-3----|-3-3-3-3-----|-3-3-3-3-----|------------|

G-|--------------|---------------|---5--5-3---------|
D-|-----------5--|------------5--|-5---5------------|
A-|--------------|---------------|-----------3--3-1-|
E-|-3-3-3-3------|-3-3-3-3-------|---------3---3----|

Verse 2 and 3:
G-|------------|------------|------------|---------|
D-|------------|------------|------------|---------|
A-|------------|------------|------------|---------|
E-|-3-3-3-3----|-3-3-3-3----|-3-3-3-3----|-x0-1-2--|

G-|------------|------------|---5--5-3-----------|
D-|------------|------------|-5---5--------------|
A-|------------|------------|------------3--3-1--|
E-|-3-3-3-3----|-3-3-3-3----|----------3---3-----|

Chorus:
G-|------------------------|------------------------|
D-|------------------------|------------------------|
A-|------------------------|------------------------|
E-|-8--8--8--8--8--8--8--8-|-6--6--6--6--5--5--5--5-|
T T T T T T T T T T T T T T T T

G-|-----------------|----------------------|
D-|---5---5---5---5-|---5---5---5--5-5-5-5-|
A-|-----------------|----------------------|
E-|-3x--3x--3x--3x--|-3x--3x--3x--3-3-3-3--|
TTP TTP TTP TTP TTP TTP TTP TPTPTPTP
Reapet two times

Bass solo:
G-|---12-x--------x-10-9-10-|---x---12-12-x--------10-15-12---|
D-|---------x10h12----------|----------------10h12------------|
A-|-x-----------------------|-10--10--------------------------|
E-|-------------------------|---------------------------------|
T P P TT P P P P T T T P P P T P P P

G-|-------12-x--------x10-9h10p9/-|-15-14-13-12\--------------|
D-|------------10h12--------------|---------------------------|
A-|-10-10-------------------------|---------------------------|
E-|-------------------------------|----------------6--5--4--3-|
T T P T T PP T P P P P T T T T

Interlude:
G-|--------|------------|------------|-------------|
D-|----5-5-|------3-3---|----5-5-----|-------------|
A-|--------|------------|------------|-------------|
E-|-3x-----|-0h1x-----x-|-3x-----3-3-|1/6--5--4--3-|
T P P T T P P T TT P P T T T T T T T

G-|--------|--------------|-----5-----|-------------|
D-|----5-5-|------3-3-----|----5------|-------------|
A-|--------|--------------|-----------|-------------|
E-|-3x-----|-0h1x-----1h3-|-3x----3-3-|1/6--5--4--3-|
T P P T T P P T TT PP T T T T T T T

After the interlude:
G-|--------------------------------|----------------|------------|
D-|--------------------------------|-12--12--12--12-|--17----15--|
A-|--------------------------------|----------------|------------|
E-|-10--10--10--10--10--10--10--10-|----------------|------------|

Outro:
G-|---12--12-------x10-9-10-|---x---12-12x--------10-15-12---|
D-|---------x10h12----------|---------------10h12------------|
A-|-10--10------------------|-10--10-------------------------|
E-|-------------------------|--------------------------------|
T P P T TT P P P P T P T P P P T P P P

G-|---12-12-12--------x10-9h10p9/-|--15-14-13-12\-------------|
D-|------------x10h12-------------|---------------------------|
A-|-10-10-10----------------------|-x--x--x--x----------------|
E-|-------------------------------|----------------6--5--4--3-|
T PT PT P TT PP P TP TP TP TP T T T T


-----
From: ShiZZaRhcP@aol.com
Subject: Red Hot Chili PePPeRs- Stone Cold Bush live bass intro
REd Hot ChiLi PePPeRs
Stone Cold Bush-Live Bass Intro
As Seen in Woodstock94 and
Bootleg "Welcome to Pu**yland"

2X's
g||------------------||------------|--------------------|-15-16----------------
d||*-12-15-12-14-15-*||------------|-12-15-12-14-15-----|-------15--12-15-15---
a||*----------------*||-X-13-13----|--------------------|----------------------
e||------------------||------------|--------------------|----------------------

2X's
g||------------------||------------|-------------------
d||*-12-15-12-14-15-*||------------|-12-15-12-14-15----
a||*----------------*||-X-13-13----|-------------------
e||------------------||------------|-------------------

g----------------------------------------
d-15-17-15-------------------------------
a---------------17-16-15-15--------------
e----------------------------------18----

This is played FAST!!!!!!
theres a lot of notes, considering the fact that this is only 10 seconds
long.













From: pre1@mrc-lmb.cam.ac.uk

Right, here is my transcription of the bass part ( yes, including solo!) to the Red Hot Chili Peppers song Stone Cold Bush from Mother's Milk.
It is not perfect and if you have any corrections, additions or suggestions just email me. I also would like to ask the help of the technical experts as to how Flea gets the sound he does on the high notes in the solo. I have marked then with a ~ as vibrato, but I'm not sure that is correct and I can't get that sound.
I figured this out all on my own with my Bass Collection SB301 and a Peavy TKO 110.

Key:

Above the line:
V = The downbeat. Hence four in each bar.
v = The upbeat. As in one-AND-two-AND-... THe AND is the upbeat.

>NB. I have only put the upbeat in the the bits that need it, mostly the solo.

Below the line:

(___) = Triplet
3
+ = Slap with thumb
^ = Pop with finger.

In the TAB:

||--
||o- = The beginning of a repeat. The end is the same
||o- but backwards
||--

~ = Vibrato. I think, see above.
10h12 = Hammer-on from 10th fret to 12th.
3p0 = Pull-off from 3rd to open.
X = A slap where the note is muted.


If this is printed in Courier 12pt it should come out fairly nicely although spread out over three pages.


From DaveE.

pre1@mrc-lmb.cam.ac.uk





------------------------------------------------------------
Intro:

VVVV VVV V VVVV V V V V
||----|----------|----|3-5-3-5-3---------|
||----|----------|----|------------------|
||----|----------|----|---------1-3-1-3-1|
||3-3-|3-3-0-1-2-|3-3-|------------------|

Verse:

V V V V V V V V V V V V
||------------------|----------------|----------------|
||o-----------------|----------------|----------------|
||o-----------------|----------------|----------------|
||--0-2-3-3-0-2-3-3-|0-2-3-3-3-0-1-2-|0-2-3-3-0-2-3-3-|
(___) (___) (___) (___) (___)
3 3 3 3 3

V V V V
|3-5-3-5-3------------||
|--------------------o||
|----------1-3-1-3-1-o||
|---------------------||

Chorus:

V V V V V V V V V V V V
||----------------|---------------*|---------------|
||o---------------|---------------*|---------------|
||o---------------|---------------*|----1-------1--|
||-8-8-8-8-8-8-8-8|6-6-6-6-5-5-5-5*|3-3---3-3-3---3|
+ + + + + + + + + + + + + + + + + ^ + + + ^ +

V V V V
|------------------||
|-----------------o||
|----1-----1---1--o||
|3-3---3-3---3---3-||
+ + ^ + + ^ + ^ +

Go to solo after *'s on the second repeat of the second chorus.

BASS SOLO:
V v V v Vv V v V v V v V v V v
||-----12-------10--9--10|---12-----------10---15~--12-|
||--------10h12----------|-------X-10h12-----X---------|
||10-X-------------------|10---------------------------|
||-----------------------|-----------------------------|
+ + ^ + ^ ^ ^ + ^ + + ^ + ^ ^

V v V v V v V v V v V v V v V v
|-----12-----------10-----10~-|--15-14-13-12------|
|--------X-10h12--------------|-------------------|
|10-X------------------X------|-------------------|
|-----------------------------|--------------6-5-4|
+ + ^ + + ^ + ^ ^ ^ ^ ^ + + +

V v V v V v V v V v V v V v V v
|----------------------|-------------------||
|o----5----------3-----|----5-------------o||
|o---------------------|-------------1-0--o|| ? times.
|-3-X----3p0-1-X----1p0|3-X----3p0-1-----4-||
+ + ^ + + + ^ + + + ^ + + + + +
V V V V V V V V
||-----------------------|12----10---|
||-----------------------|-----------|
||-----------------------|-----------|
||10-10-10-10-10-10-10-10|-----------|
+ + + + + + + + ^ ^
This bar 3 times then.....this once.Then back to Intro followed by the verse followed by the chorus and then....

V v V v V v V v
||----3---3---3---3--|| This bit is where I get a
||o-----------------o|| little bit dodgy on the
||o-----------------o|| transcribing!
||--3---3---3---3----||
+ ^ + ^ + ^ + ^


V v V v V v V V VVV
|--3---3---------|-------||
|----------------|-------|| End
|----------------|-------||
|3---3-----6-5-4-|-3-----||
+ ^ + ^ + + +