rhcpfrance
Prochain concert dans :
Flash info :
Forum, à la une :
Tablature

basse Knock Me Down



Knock Me Down
By the Red Hot Chili Peppers
from the album Mother's Milk
Tabbed by Martin Peters
Legend: ^ = play note with accent
Bass
Moderately fast

Intro:
G-|------------------|------------------|------------------|
D-|------------------|------------------|------------------|
A-|-----3---5h7-7-5--|-----3---5h7-7-5--|-----3---5h7-7-5--|
E-|-3h5---5----------|-3h5---5----------|-3h5---5----------|

G-|---------------------|---------------------|-------------------|------|
D-|---------------------|---------------------|-------------------|------|
A-|-----3---5h7-3h5-5-5-|-----3---5h7-3h5-5-5-|-----3---5h7-3h5-5-|------|
E-|-3h5---5-------------|-3h5---5-------------|-3h5---5-----------|-1----|

Verse 1:
G-|-----------------|-------------|--------------|----------------|
D-|-----------------|-------------|--------------|----------------|
A-|-3h5--5-5--------|-----------3-|-5-5--3-3--1--|-1-1-1h3-3h5p3--|
E-|----------5-5--3-|-3--3-3--5---|--------------|----------------|

G-|-------------------|-------------|-----------------|-----------------|
D-|-------------------|-------------|-----------------|-----------------|
A-|-3h5-5-------------|-------------|-----------------|-----------------|
E-|--------5-5---5-3--|-3-3-3/5-3-3-|-5-5-5-5-5-5-5-5-|-6-6-6-6-6-6-6-6-|
^ ^ ^ ^ ^ ^ ^ ^

G-|-------------------|--------------|-----------------------|
D-|-------------------|--------------|-----------------------|
A-|-7-7-7-7p5---------|----------5-7-|-3h5-5-5p3-3-3-3h5-5h7-|
E-|------------7-7--5-|-5-5--5/7-----|-----------------------|

G-|----------------|-----------------|-----------------|-----------------|
D-|----------------|-----------------|-----------------|-----------------|
A-|-7-7-7-7--------|-----------------|-----------------|-----------------|
E-|---------7--7-5-|-5-5--5/7-7\5--7-|-7-7-7-7-7-7-7-7-|-8-8-8-8-8-8-8-8-|
^ ^ ^ ^ ^ ^ ^ ^
Chorus:
G-|-----------5-|-----------5-|-----------9-|---------------------|
D-|-------------|-------------|-------------|---------------------|
A-|-5--5-3-3x---|-5--5-3-3x---|-------7x----|-3/5-x----------3/5--|
E-|-------------|-------------|-5-5x--------|-------5\3-5\3-------|
T T T TT P T T T TT P T TT TT P T T T T T
Reapet two times

Pre-2nd verse:
G-|---------------------|-----------------|-----------------------------|
D-|---------------------|------------5----|-------------------5---------|
A-|-5-5---5-------------|----5-5-5h7--5h7-|-5-5--5--------5/7---7\5-3-3-|
E-|----------5-5-5--3-3-|-3---------------|---------5-5-----------------|

Verse 2:
G-|-----------------|-------------|--------------|----------------|
D-|-----------------|-------------|--------------|----------------|
A-|-3h5--5-5--------|-----------3-|-5-5--3-3--1--|-1-1-1h3-3h5p3--|
E-|----------5-5--3-|-3--3-3--5---|--------------|----------------|

G-|-------------------|-------------|-----------------|-----------------|
D-|-------------------|-------------|-----------------|-----------------|
A-|-3h5-5-------------|-------------|-----------------|-----------------|
E-|--------5-5---5-3--|-3-3-3/5-3-3-|-5-5-5-5-5-5-5-5-|-6-6-6-6-6-6-6-6-|
^ ^ ^ ^ ^ ^ ^ ^
Bridge:
G-|-------------------|---------------|-------------|----------------|
D-|-------------------|---------------|-------------|-----4-2h4-2p0--|
A-|-7-7-7-5h7---------|---------------|-4-4--4------|----------------|
E-|-----------7-7-7-7-|-5/7-5-5-5h7p5-|--------4--4-|-2-2------------|

G-|-------------------|---------------|-------------|----------------|
D-|-------------------|---------------|-------------|-----4-4-4-4\---|
A-|-7-7-7-5h7---------|---------------|-4-4--4------|----------------|
E-|-----------7-7-7-7-|-5/7-5-5-5h7p5-|--------4--4-|-2-2------------|

Interlude:
G-|-------5h7-----|----------------|------------------|---------------|
D-|----5h7----8---|----------------|------------------|---------------|
A-|-5-------------|----------------|-----------3-3--3-|-1-1--1-1-1-1--|
E-|---------------|-6-6--3-3-3\1-1-|-1-1--1-1---------|---------------|

G-|------------------------|------------------------|
D-|------------------------|------------------------|
A-|-0--0--0--0--0--0--0--0-|-8--8--8--8--8--8--8--8-|
E-|------------------------|------------------------|
T T T T T T T T T T T T T T T T

Reapet bars two times
G-|--------------|-----------------|--------------------|
D-|--------------|-----------------|----------7-7-7-7\--|
A-|--------------|-----------------|--------------------|
E-|-3-3-3-3--1-1-|-1--1--5--5-5--5-|-5-5-5-5------------|

Last chorus:
G-|-----x11----9-------|-----11------9x---|--6-6x-6----------|
D-|--------------------|------------------|-----------6-6----|
A-|-9-9----7-7--7--9-9-|-9-9---9-7-7----7-|-4-4----4---------|
E-|--------------------|------------------|----------4-4-4-x-|
T T P T T PT T T T T P T T T P T TPTPP PT TPTPT T

G-|------------------------|
D-|------------------------|
A-|-7-7-7-x7---------------|
E-|----------7-7---7-x7-x7-|
T T T TT T T T TT TT
Reapet two times

Outro:
G-|------------------------|------------------------|
D-|------------------------|------------------------|
A-|-4--4--4--4--4--4--4--4-|-4--4--4--4--4--4--4--4-|
E-|------------------------|------------------------|

G-|------------------------|------------------------|
D-|------------------------|------------------------|
A-|-7--7--7--7--7--7--7--7-|------------------------|
E-|------------------------|-7--7--7--7--7--7--7--7-|










Song: Knock Me Down
BY: Red Hot Cili Peppers
Previous author: Martin Peters
Tabbed by Brian Fitzpatrick

Intro:
Pretty easy, listen to the cd and you'll get the first time.
G-|----------------|----------------|----------------|----------------|
D-|----------------|----------------|----------------|----------------|
A-|-----3-5h7---3-5|-----3-5h7---3-5|-----3-5h7---3-5|----------------|
E-|-3/5-------5----|-3/5-------5----|-3/5-------5----|1---------------|

Verse:
A very tricky and scyncopated rythym, listen carefully to the cd for timing
G-|----------------|----------------|----------------|----------------|
D-|----------------|----------------|----------------|----------------|
A-|-5-5------------|---------3-4-X--|4/5-5-5-X-3-3-1-|1-3p1-1h4p1-----|
E-|-----X-5-5---3--|-3-3-3/5--------|----------------|----------------|

G-|----------------|----------------|----------------|----------------|
D-|----------------|-5--------------|----------------|----------------|
A-|4h5-5-----------|----------------|----------------|----------------|
E-|------0-5-5---3-|---3---3---4----|5-5-5-5-5-5-5-5-|/6-6-6-6-6-6-6-6|
P T T T

G-|----------------|----------------|----------------|----------------|
D-|----------------|----------------|----------------|----------------|
A-|-7-7------------|---------5-6-X--|7-7-X-5-5-3-----|-3-5-3-5-3-6----|
E-|----X-7-7-5-(5)-|-5-5-5/7--------|----------------|----------------|

G-|----------------|----------------|----------------|----------------|
D-|----------------|-7--------------|----------------|--------------7\|
A-|6/7-7-----------|----------------|----------------|----------------|
E-|-----0-7-7-5----|---5---5-5h6----|-7-7-7-7-7-7-7-7|/8-8-8-8-8-8-8--|
P T

Chorus:
Here comes the fun part... I'm not sure if this is right, but it sounds
right
to me.

G-|---7------5-----|----------5-----|---------9------|----------------4-----|
D-|----------------|----------------|----6-----------|----------------------|
A-|5-5--XX-3--3-3-X|-5-5-5-0-3-3-3-0|0-0---0-7--7-7-0|----------X-2-2--3/4--|
E-|----------------|----------------|----------------|0-1-2-3--5------------|
T TP TT T PT T T T T T T TPT T T T T P T TP T T T T T T PT

G-|---7------5-----|----------5-----|---------9------|
D-|----------------|----------------|----6-----------|
A-|5-5--XX-3--3-3-X|-5-5-5-0-3-3-3-0|0-0---0-7--7-7-0|
E-|----------------|----------------|----------------|
T TP TT T PT T T T T T T TPT T T T T P T TP T T T


Pre-verse:
Almost the same as the first line of the verse.

G-|----------------|----------------|----------------|----------------|----------------|
D-|----------------|----------------|----------------|----------------|----------------|
A-|-------0-2-3-4--|5-5-X-----------|-----------3---3|-5-5-0-3-3---1--|-1p3-1p3-1p4-1p4|
E-|1-2-3-----------|------X-5-5--3--|3-3-00-3h5---5--|----------------|----------------|

Interlude:
Much easier than the verse

G-|-0h2-7/9-------|-----------------|----------------|----------------|
D-|0--------------|-----------------|--3-3-----------|----------------|
A-|---------------|-----------------|-------/3--3--1-|-1-1-1-1-1-1-1-1|
E-|------------6--|6----3-----6\----|-----/1---------|----------------|

G-|---------------|-----------------|----------------|----------------|
D-|7-7-7-7-7-7-7-7|-----------------|-7-7-7-7-7-7-7-7|----------------|
A-|---------------|-8-8-8-8-8-8-8-8-|----------------|-8-8-8-8-8-8-8-8|
E-|---------------|-----------------|----------------|----------------|

G-|---------------|-----------------|----------------|
D-|---------------|-----------------|----------------|
A-|---------------|-----0-0-0-0-0-0-|-0-0-0-0-0-0-0-0|
E-|3-3-3-3-3-3-3-3|\1-1/------------|----------------|

Ending:

G-|------------------------|------------------------|
D-|------------------------|------------------------|
A-|-4--4--4--4--4--4--4--4-|-4--4--4--4--4--4--4--4-|
E-|------------------------|------------------------|

G-|------------------------|------------------------|
D-|------------------------|------------------------|
A-|------------------------|7--7--7--7--7--7--7--7--|
E-|-7--7--7--7--7--7--7--7-|------------------------|

Intro X 1
Verse X 1
Chorus X 1
Pre-Verse X 1
Verse X 1
Chorus X 1
Interlude X 1
Chorus X 3
Ending X 5