rhcpfrance RhcpFrance
Concert du jour :
Louisville, KY - U.S.A
Sélection du moment :
Tablature

guitare Magic Johnson



=================
* Magic Johnson *
=================

from "Mother's Milk"
Music by KiedisFleaFruscianteSmith
EMI 1989
BUY THE TAB BOOK!>

Tabed by Galoz
Californicatoin@hotmail.com


Intro End intro|
P.M. mute W/ slight dist. X6 claim the remin.. in tact
E||----------------------------------|------------------6--------|
B||----------------------------------|------------------5--------|
G||----------------------------------|------------------3--------|
D||----------------------------------|---------------------------|
A||----------------------------------|---------------------------|
E||--0-0-0-0-0-0-0-0-0-0-0-0-0-0-0-0-|--0-0-0-0-0-0-0-0----------|

| Riff 1
After "we dont give a.." do as into...and then W/ wha wha
------------------|-----------------------------14-|--14----14--x-x-14--x-x-14--x-x-|
------------------|-----------------------------17-|--17----17--x-x-17--x-x-17--x-x-|
------------------|-----------------------------16-|--16----16--x-x-16--x-x-16--x-x-|
------------------|--------------------------------|--------------------------------|
------------------|--------------------------------|--------------------------------|
------------------|--------------------------------|--------------------------------|



--14--x-x-14--x-x-x-15--15--15--x-|--14-14-x-x-14-14---14--x-x-14--x-x-|
--17--x-x-17--x-x-x-15--15--15--x-|--17-17-x-x-17-17---17--x-x-17--x-x-|
--16--x-x-16--x-x-x---------------|--16-16-x-x-16-16---16--x-x-16--x-x-|
----------------------------------|------------------------------------|
----------------------------------|------------------------------------|
----------------------------------|------------------------------------|



--14--x-x-14--x-x-x-17--17--17--x-|--14-14-x-x-14-14---14--x-x-14--x-x-|
--17--x-x-17--x-x-x-17--17--17--x-|--17-17-x-x-17-17---17--x-x-17--x-x-|
--16--x-x-16--x-x-x---------------|--16-16-x-x-16-16---16--x-x-16--x-x-|
----------------------------------|------------------------------------|
----------------------------------|------------------------------------|
----------------------------------|------------------------------------|



--14--x-x-14--x-x-x-15--15--17--x-|--14-14-x-x-14-14---14--x-x-14--x-x-|
--17--x-x-17--x-x-x-15--15--17--x-|--17-17-x-x-17-17---17--x-x-17--x-x-|
--16--x-x-16--x-x-x---------------|--16-16-x-x-16-16---16--x-x-16--x-x-|
----------------------------------|------------------------------------|
----------------------------------|------------------------------------|
----------------------------------|------------------------------------|


END riff1| P.M.+slight dist. X6 and after that do riff 1
--x-7--8-----x-12--13--14/--|----------------------------------|
--x-7--8-----x-12--13--14/--|----------------------------------|
--x-7--8-----x-12--13--14/--|----------------------------------|
----------------------------|----------------------------------|
----------------------------|----------------------------------|
----------------------------|--0-0-0-0-0-0-0-0-0-0-0-0-0-0-0-0-|


Solo - with wha wha
|------------------------------15/17/15----|
|--14-15-----------------------15/17/15----|
|--------12-14-----------------------------|
|--------------12-14-x-x-12/14-------------|
|------------------------------------------|
|------------------------------------------|



-----------------------------------------|
--14-15----------------------------------|
--------12-14----------------------------|
--------------12-14-x-x-x-12--12--12-x-x-|
-----------------------------------------|
-----------------------------------------|



------------------------------15/17/15----|
--14-15-----------------------15/17/15----|
--------12-14-----------------------------|
--------------12-14-x-x-12/14-------------|
------------------------------------------|
------------------------------------------|



------------------------x-17-17-17-17-17--x-|
--14-15-----------------x-17-17-17-17-17--x-|
--------12-14-------------------------------|
--------------12-14-x-x---------------------|
--------------------------------------------|
--------------------------------------------|



------------------------------15/17/15----|
--14-15-----------------------15/17/15----|
--------12-14-----------------------------|
--------------12-14-x-x-12/14-------------|
------------------------------------------|
------------------------------------------|



-----------------------------------------|
--14-15----------------------------------|
--------12-14----------------------------|
--------------12-14-x-x-x-12--12--12-x-x-|
-----------------------------------------|
-----------------------------------------|



------------------------------15/17/15----|--x-7--8-----x-12--13--14/--||
--14-15-----------------------15/17/15----|--x-7--8-----x-12--13--14/--||
--------12-14-----------------------------|--x-7--8-----x-12--13--14/--||
--------------12-14-x-x-12/14-------------|----------------------------||
------------------------------------------|----------------------------||
------------------------------------------|----------------------------||

Guitar tact.


That's it...pretty simple...
if you got any problems Email me...