rhcpfrance
Prochain concert dans :
Flash info :
Forum, à la une :
Tablature

basse Dark Light



Tabbed By : irondethpepper

I'm 90% sure about the notes but you have to listen the song and work out the rhythm and timing.

This part starts at 3:40

G|--------3---3-3s5------------------------------------------------------------|
D|----3h5---5-------1-1-1-3----------------------------------------------------|
A|--3-----------------------1-1-1-3-1h3h1--------------------------------------|
E|-----------------------------------------4-4-3-3-3-3-3-3-3s11-10-------------|

G|--------3---8-5-3-3-3-5--3-3-3-5-3h5h3-----7-4-4-4-4s0-0-0-----------8-7-----|
D|----3h5---5----------------------------6-6-----------------3-3s6-5-----------|
A|--3--------------------------------------------------------------------------|
E|-----------------------------------------------------------------------------|

G|--------3---3h5---------3-3-3-5-3h5h3-----4-4-4-4-4-4-4-4-4-4-4s7-7-7-7h10-8-|
D|----3h5---5-----1-1-1-3---------------6-6------------------------------------|
A|--3--------------------------------------------------------------------------|
E|-----------------------------------------------------------------------------|