rhcpfrance
Prochain concert dans :
Flash info :
Forum, à la une :
Tablature

basse Walkin' On Down The Road



Walkin´On Down the Road - Bass Tab
By the Red Hot Chili Peppers
>From the album The Uplift Mofo Party Plan
Tabbed by Otto Brandt (osmo_brand@hotmail.com)
Thanks for Main Riff for Mr X

Main riff
G |----7h8-5-----5-----7h8-5-----5h6-5---5----|
D |------------7---7-----------7--------------|
A |--0-------0-------0-------0---------0---0--|
E |-------------------------------------------|

Chorus
G |--------------|--------------|--------------|
D |--------------|--------------|--------------|
A |--0--0--0-0-0-|--0--0--0-0-0-|--0--0--5-5-0-|
E |--------------|--------------|--------------|

Guitar Solo part
G |---------------|play |------------|---------|------------|
D |-----3--5--5---|eight |------------|--7-7-7--|--10-10-10--|
A |--0------------|times and |--10-10-10--|---------|------------|
E |---------------|then |------------|---------|------------|


G |----------|----------|---------|-----------|
D |----------|----------|--7-7-7--|-10-10-10--|
A |-10-10-10-|-10-10-10-|---------|-----------|
E |----------|----------|---------|-----------|
Play for four measures
G |---------|
D |--9-9-9--|
A |---------|
E |---------|


If you have any comments, corrections or additions, please mail me.