rhcpfrance
Prochain concert dans :
Flash info :
Forum, à la une :
Tablature

basse No Chump Love Sucker



No Chump Love Sucker - Bass Tab
By the Red Hot Chili Peppers
>From the album The Uplift Mofo Party Plan
Tabbed by Otto Brandt (osmo_brand@hotmail.com)

Verse play eight times
G |--------8p9-|-------8p9-|--------8p9-|---11p12--------|
D |------------|-----------|------------|----------11p12-|
A |--7-7-7-7---|--7-7-7-7--|--7-7-7-7---|--10------------|
E |------------|-----------|------------|---------10-----|

Interlude after two first verses
G |-------------|-------------|------------|------------------|
D |--7-7-7-5-7--|--7-7-7-5-7--|--5-5-5-4-5-|--10-10-10-10-10--|
A |-------------|-------------|------------|------------------|
E |-------------|-------------|------------|------------------|

Interlude after third verse
G |--12-12-12-11-12--|--11-11-11-10-11--|--10-10-10-9-10--|
D |------------------|------------------|-----------------|
A |------------------|------------------|-----------------|
E |------------------|------------------|-----------------|

G |--9-9-9-8-9-9--|play |---------|------------------|
D |---------------|two |--12-11--|--10-10-10-10-10--|
A |---------------|times and |---------|------------------|
E |---------------|then |---------|------------------|

Interlude after fourth verse
G |------------|-----------------|------------|-----------------|
D |--7-10-5-7--|--7-10-5-10-5-7--|--7-10-5-7--|--7-10-5-10-5-7--|
A |------------|-----------------|------------|-----------------|
E |------------|-----------------|------------|-----------------|

Ending
G |------------------------|
D |------------------------|
A |--10---10---11---12--7--|
E |----10---10---11--------|


If you have any comments, corrections or additions, please mail me.