rhcpfrance RhcpFrance
Prochain concert dans :
Flash info :
Sélection du moment :
Tablature

guitare Another



Another
**************************
Artist:Ataxia
album : AUTOMATIC WRITING
**************************


Version 1 :

Tabbed By:SkinnySweatyMan711@hotmail.com

^^=Bend

e-------------------------------------
B------12-----12-----------15----13-12
G----12-----12-----------12----12---12
D--14-----14----14-----14----14-------
A-------------------------------------
E-------------------------------------
Em


e-----------------------------------------
B------12-----12---------10-----8-------12
G----12-----12---------11------9--------12
D--14-----14----14---12------10--10-----14
A-----------------------------------------
E-----------------------------------------
Em D C


e-------------------------------------
B------12-----12-----------15----13-12
G----12-----12-----------12----12---12
D--14-----14----14-----14----14-------
A-------------------------------------
E-------------------------------------
Em


e--------------------------------8-7---
B------12-----12---------10-----8------
G----12-----12---------11------9-------
D--14-----14----14---12------10--------
A--------------------------------------
E--------------------------------------
Em D C

Guitar Solo:
Pretty Simple But Its All About The Feel Not The Speed


e-----------------------------------------
B----12--15--17--12--12--15--17--12-------
G-----------------------------------------
D-----------------------------------------
A-----------------------------------------
E-----------------------------------------

e---------------------------------------------
B----12--15--17--12--12--15--17--12---12------
G-------------------------------------14------
D-------------------------------------^^------
A---------------------------------------------
E---------------------------------------------

e-----------------------------------------------
B----12--15--17--12--12--15--17--12--15--13-12--
G-----------------------------------------------
D-----------------------------------------------
A-----------------------------------------------
E-----------------------------------------------

e-----------------------------------------
B----12--15--17--12--12-------------------
G------------------------14--12------11---
D------------------------^^-------------14
A-----------------------------------------
E-----------------------------------------

(The Above Bar Of The Solo Is The Only Part Im Not Fully Sure Of)

e--------------
B--------------
G-------12-----
D----14----14--
A--------------
E--------------

The Song Ends On This Played Alot And Slightly Fading Out
Im Really Sure This Is All Correct

*************************************************************
Version 2 :

Transcribed by: Sean Rudd
Email: sean_r31@hotmail.com

This is the riff which is played throughout the song. During the song this
riff
varies slightly, you will probably be able to pick out the variations by
ear, if
not just play the main riff.

-|-----7-----7-------10-----8-7-|---------------------------------------------
-|---8-----8-------8------8-----|---------------------------------------------
-|-9-----9-----9-9------9-------|---------------------------------------------
-|------------------------------|---------------------------------------------
-|------------------------------|---------------------------------------------
-|------------------------------|---------------------------------------------
This is the solo.

-|-7-10-12-7-7-10-12-7-|-7-10-12-7-7-10-12-7-7b-|-----------------------------
-|---------------------|------------------------|-----------------------------
-|---------------------|------------------------|-----------------------------
-|---------------------|------------------------|-----------------------------
-|---------------------|------------------------|-----------------------------
-|---------------------|------------------------|-----------------------------


-|-7-10-12-7-7-10-12-7-10-8-7-|-7-10-12-7-7-10b-8-7-5-4-2-|-------------------
-|----------------------------|---------------------------|-------------------
-|----------------------------|---------------------------|-------------------
-|----------------------------|---------------------------|-------------------
-|----------------------------|---------------------------|-------------------
-|----------------------------|---------------------------|-------------------
Any corrections would be appreciated, thank you.