rhcpfrance
Prochain concert dans :
Flash info :
Forum, à la une :
Tablature

basse Dust



Ataxia - Dust
Automatic Writing
tabbed by Kohlrabi aka Christoph Terasa

G|------------------------------------
D|--------9\--------------------------
A|-7----7------5-5-5------------------
E|-------------------5-5-5-7-7--------

sometimes do this:
G|------------------------------------
D|--------9\---5-5--------------------
A|-7----7----------5-5----------------
E|---------------------5-5-7-7--------