rhcpfrance
Prochain concert dans :
Flash info :
Forum, à la une :
Tablature

basse Skinny Sweaty Man



From krinkle@tiac.netSun Aug 4 00:48:14 1996
Skinny sweaty man

verse :

T T P T P T T P T P
G-|---------------------0---9---------------------------------------------|
D-|---------7---7---------------------------------------------------------|
A-|---5h7---------5h7-0---------------------------------------------------|
E-|-------x---x-----------0-----------------------------------------------|


chorus :
G-|--7-6-----------------------|
D-|------9-7--5-7-8-9--5-------|
A-|----------------------7-7---|
E-|----------------------------|

vocal/bass fill :
G-|------------------------------------------------------------------|
D-|--------------------5---------------------------------------------|
A-|--7-5-5-7--*7-*5------7--7-5-5-7-*7-*5----------------------------|
E-|------------------5--------------------5-3~--0--------------------|

G-|----------------------------------7h9p7---------------------------|
D-|--------------------5-----------/9--------------------------------|
A-|--7-5-5-7--*7-*5------7--7-5-5------------------------------------|
E-|------------------5-----------------------------------------------|

G-|------------------------------------------------------------------|
D-|--------------------5---------------------------------------------|
A-|--7-5-5-7--*7-*5------7--7-5-5-7-*7-*5----------------------------|
E-|------------------5--------------------5-3~--0--------------------|