rhcpfrance
Prochain concert dans :
Flash info :
Forum, à la une :
Tablature

basse Me and My Friends



Me and My Friends by the Red Hot Chili Peppers

intro=repeat 2 times then do this 8 times
g----------9-|-------------11---|-----11p9--------------
d---7\10-----|-----7\10---------|-------------10--------
a-0----------|--0---------------|-----------------------
e------------|------------------|-----------------------

chorus"me and my me and my me and my"part
5 times then do this 2 times
g---------------|---------------------------
d--7p5----------|-----------5h7-------------
a---------7-----|---5-5-5-------5-5---------
e---------------|---------------------------

verse-this is all slapped
g------------------------------------------
d------------------------------------------
a-----------5-5-5-5-------------5-5--------
e-0--0-0----------------0-0-0--------------

from PePPeRs 01@aol.com
real name scott b
any questions or comments write me







Artist:Red Hot Chili Peppers
Song:"Me and My friends"
Tabbed by: Julián O. Barrera
FLEA RULES!

Intro:
G----------9----------11---- |--11-9-------------|
D-----x/10-------x/10----(2x)|-------10-(8x)-----|
A--0----------0--------------|-------------------|
E----------------------------|-------------------|

Chorus:
G-----------------------------------------------|
D---7-5-------------------------5h7-------------|
A-------5-(5x)-5-5-5-5-5-5-5-5-------5-5-5-5-5-5|
E-----------------------------------------------|

Verse:
G---------------------------------|
D---------------------------------|
A--------5-5-5-5------5-5-5-(9x)--|
E--0-0-0----------0-0-------------|
S S S S S S S S S S S S

Guitar Solo:
G-------------------------------|-----------------------------------------|-----------------------------------------------|
D-------------------------------|-----------------------------------------|-----------------------------------------------|
A--------5-5-5-5------5-5-5-(8x)|-5-x-5-x-5-x-5-x-5-5-0-0-0-0-0-0-0-0-0-0-|5-x-5-x-5-x-5-x-5-5-0-0-0-0-0-0-0-0-3-3-3-3-3-3|
E--0-0-0----------0-0-----------|-----------------------------------------|-----------------------------------------------|
S S S S S S S S S S S S
Interlude:
G--------------------------------|
D--------------------------------|
A-3/5\(37x)-3/5-5-5-5-5-5-5-5-5-5|
E--------------------------------|