rhcpfrance RhcpFrance
Concert du jour :
Louisville, KY - U.S.A
Sélection du moment :
Tablature

guitare Torture Me



Torture Me Tab by Red Hot Chili Peppers, www.Ultimate-Guitar.Com

Standard Tuning
eBGDAE

Bass Intro then: fast chord strumming

A# D#m
0:15 0:19
|----6--6-6-6--.......------6--6-6-6.........------------------|
|----6--6-6-6--.......------7--7-7-7.........------------------|
|----7--7-7-7--.......------8--8-8-8..........| Repeat--| 5X
|----8--8-8-8--.......------8--8-8-8.........------------------|
|----8--8-8-8--.......------6--6-6-6.........------------------|
|----6--6-6-6--.......----- (6)- 6-6-6.........----------------|

on the 5th time under the D#m chord there is a background guitar doing this:

|------------| |------------------|
|----9-------| |------------------|
|--- 12^(13)--| OR |----13--------------|
|------------| |----17^(18)-------|
|------------| |------------------|
|------------| |------------------|


|-------------------------------------------------------------|
|-------------------------------------------------------------|
|----------10------------------------8^(10)v8------6----------| continue on
|---8---8------11----8--11-------8-------------8-----8--------| next line
|---------------------------9---------------------------------|
|-------------------------------------------------------------|

A#............D#m
|--------------------------------------------------- 8.........----6--|
|--------------------------------------------------- 8.........----7--|
|----------10--------------------------------------- 7.........----8--|
|---8---8------11----8--11-------8~---------------- 8.........----8--|
|---------------------------9----------------------- 8..........----6-|
|--------------------------------------11^~~- 106-- 6..........-------|(6)


slow part with distortion
1:58
C# D#m C# D#m C# D#m
D#m
|--------------6-----------------6-----------------6--------44444444- 66666666----|
|-----6--------7--------6--------7--------6--------7--------6---------7-----------|
|-----6--------8--------6--------8--------6--------8--------6---------8-----------|
|-----6--------8--------6--------8--------6--------8--------6---------8-----------|
|-----4--------6--------4--------6--------4--------6--------4---------6-----------|
|---------------------------------------------------------------------------------|

C# D#m
|-----44444444- 6-----|
|-----6---------7-----|
|-----6---------8-----|
|-----6---------8-----|
|-----4---------6-----|
|---------------------|

Solo

|--------------------|
|--------------------|
|--------------------|
|-------6666/8888----|
|--------------------|
|--------------------|

enjoy so far
ill be back with the rest of the solo

on the bends, start on the listed, initial note and bend up to the note that's in parenthesis