rhcpfrance RhcpFrance
Concert du jour :
Louisville, KY - U.S.A
Sélection du moment :
Tablature

guitare Slow Cheetah



Slow Cheetah Tab by Red Hot Chili Peppers, www.Ultimate-Guitar.Com

Slow Cheetah


Red Hot Chili Peppers
Guitar



Play all the notes between ( )
E E S S E E E S S E
E||----------------------------------------------------------------|
B||----------------------------------------------------------------|
G||----------------------------------------6----------------6------|
D||---------------------------------8----------------6-------------|
A||-----------------------------------------------4-----(4)---(4)--|
E||--6---------------------------------(6)---(6)-------------------|


E E S S E E E S S E E E S S E E E S S E
-----------------------------6------|------------------------------------|
------------6-----------------------|------------------------------------|
-----8----------------6-------------|------------6----------------6------|
-------------------4-----(4)---(4)--|-----8----------------6-------------|
--6-----(6)---(6)-------------------|-------------------4-----(4)---(4)--|
------------------------------------|--6-----(6)---(6)-------------------|


VOZ
E E S S E E E S S E E E S S E E E S S E
-----------------------------6------|-------------------------------------|
------------6-----------------------|-------------------------------------|
-----8----------------6-------------|-------------6----------------6------|
-------------------4-----(4)---(4)--|------8----------------6-------------|
--6-----(6)---(6)-------------------|--------------------4-----(4)---(4)--|
------------------------------------|--6------(6)---(6)-------------------|


E E S S E E E S S E E E S S E E E S S E
-----------------------------6------|------------------------------------|
------------6-----------------------|------------------------------------|
-----8----------------6-------------|------------6----------------6------|
-------------------4-----(4)---(4)--|-----8----------------6-------------|
--6-----(6)---(6)-------------------|-------------------4-----(4)---(4)--|
------------------------------------|--6-----(6)---(6)-------------------|


E E S S E E E S S E E E S S E E E S S E
-----------------------------6------|-----8S--(6)-6-L-------------------|
------------6-----------------------|---------------L-----9------6------|
-----8----------------6-------------|-----------------------------------|
-------------------4-----(4)---(4)--|-----------------------------------|
--6-----(6)---(6)-------------------|-----------------------------------|
------------------------------------|--6------(6)------9-----(9)---(9)--|


E E S S E E E S S E E E S S E E E S S E
------------------------------------|-----8S--(6)-6-L-------------------|
------------------------------------|---------------L-----9------6------|
-----8------6-----------------------|-----------------------------------|
----------------------8------6------|-----------------------------------|
--6-----(6)---(6)--9-----(9)---(9)--|-----------------------------------|
------------------------------------|--6------(6)------9-----(9)---(9)--|


Bajo
E E S S E E E S S E E E S S E E E S S E
------------------------------------|--------------------------------------|
------------------------------------|--------------------------------------|
-----8------6----------------6------|--------------6----------------6------|
----------------------8-------------|-------8----------------6-------------|
--6-----(6)---(6)--9-----(9)---(9)--|---------------------4-----(4)---(4)--|
------------------------------------|--6-------(6)---(6)-------------------|


E E S S E E E S S E E E S S E E E S S E
-----------------------------6------|------------------------------------|
------------6-----------------------|------------------------------------|
-----8----------------6-------------|------------6----------------6------|
-------------------4-----(4)---(4)--|-----8----------------6-------------|
--6-----(6)---(6)-------------------|-------------------4-----(4)---(4)--|
------------------------------------|--6-----(6)---(6)-------------------|


E E S S E E E S S E E E S S E E E S S E
-----------------------------6------|-----8S--(6)-6-L-------------------|
------------6-----------------------|---------------L-----9------6------|
-----8----------------6-------------|-----------------------------------|
-------------------4-----(4)---(4)--|-----------------------------------|
--6-----(6)---(6)-------------------|-----------------------------------|
------------------------------------|--6------(6)------9-----(9)---(9)--|


E E S S E E E S S E E E S S E E E S S E
------------------------------------|-----8S--(6)-6-L-------------------|
------------------------------------|---------------L-----9------6------|
-----8------6-----------------------|-----------------------------------|
----------------------8------6------|-----------------------------------|
--6-----(6)---(6)--9-----(9)---(9)--|-----------------------------------|
------------------------------------|--6------(6)------9-----(9)---(9)--|


Q E. S S S E E. S E E E S E S S S S S S S
--6----6---6-6-6-6--6---6-|--6--6--6--6-6--6-6-6-6-6-6-6-|
--6----6---6-6-6-6--6---6-|--6--6--6--6-6--6-6-6-6-6-6-6-|
--8----8---8-8-8-8--8---8-|--8--8--8--8-8--8-8-8-8-8-8-8-|
--8----8---8-8-8-8--8---8-|--8--8--8--8-8--8-8-8-8-8-8-8-|
--6----6---6---6----6---6-|-----6--6--6-6--6-6-6-6-6-6-6-|
--------------------------|------------------------------|


E E E S S E E E E Q E S E S S S S S S S
--(6)--6--6------------------|--6----6--6-6--6-6-6-6-6-6-6-|
---7---7--7--x-x-6--6--6-----|--7----7--7-6--7-7-7-7-6-6-6-|
---6---6--6--x-x-6--6--6-----|--8----8--8-8--8-8-8-8-8-8-8-|
---4---4--4--x-x-6--6--6-----|--8----8--8-8--8-8-8-8-8-8-8-|
-------------x-x-4--4--4-----|--6----6--6-6--6-6-6-6-6-6-6-|
-----------------------------|-----------------------------|


E E E S S E E E E Q E S E S S S S S S S
--(6)--6--6------------------|--6----6--6-6--6-6-6-6-6-6-6-|
---7---7--7--x-x-6--6--6-----|--7----7--7-6--7-7-7-7-6-6-6-|
---6---6--6--x-x-6--6--6-----|--8----8--8-8--8-8-8-8-8-8-8-|
---4---4--4--x-x-6--6--6-----|--8----8--8-8--8-8-8-8-8-8-8-|
-------------x-x-4--4--4-----|--6----6--6-6--6-6-6-6-6-6-6-|
-----------------------------|-----------------------------|


E E E S S E E E E Q E S E S S S S S S S
--(6)--6--6------------------|--6----6--6-6--6-6-6-6-6-6-6-|
---7---7--7--x-x-6--6--6-----|--7----7--7-6--7-7-7-7-6-6-6-|
---6---6--6--x-x-6--6--6-----|--8----8--8-8--8-8-8-8-8-8-8-|
---4---4--4--x-x-6--6--6-----|--8----8--8-8--8-8-8-8-8-8-8-|
-------------x-x-4--4--4-----|--6----6--6-6--6-6-6-6-6-6-6-|
-----------------------------|-----------------------------|


E E E S S E E E E Q E. S S S E Q
--(6)--6--6------------------|--6----6---6-6-6-6--6----|
---7---7--7--x-x-6--6--6-----|--6----6---6-6-6-6--6----|
---6---6--6--x-x-6--6--6-----|--8----8---8-8-8-8--8----|
---4---4--4--x-x-6--6--6-----|--8----8---8-8-8-8--8----|
-------------x-x-4--4--4-----|--6----6---6---6----6----|
-----------------------------|-------------------------|


E E S S E E E S S E E E S S E E E S S E
------------------------------------|-----------------------------6------|
------------------------------------|------------6-----------------------|
------------6----------------6------|-----8----------------6-------------|
-----8----------------6-------------|-------------------4-----(4)---(4)--|
-------------------4-----(4)---(4)--|--6-----(6)---(6)-------------------|
--6-----(6)---(6)-------------------|------------------------------------|


E E S S E E E S S E E E S S E E E S S E
------------------------------------|-----------------------------6------|
------------------------------------|------------6-----------------------|
------------6----------------6------|-----8----------------6-------------|
-----8----------------6-------------|-------------------4-----(4)---(4)--|
-------------------4-----(4)---(4)--|--6-----(6)---(6)-------------------|
--6-----(6)---(6)-------------------|------------------------------------|


VOZ
E E S S E E E S S E E E S S E E E S S E
-------------------------------------|-----------------------------6------|
-------------------------------------|------------6-----------------------|
-------------6----------------6------|-----8----------------6-------------|
------8----------------6-------------|-------------------4-----(4)---(4)--|
--------------------4-----(4)---(4)--|--6-----(6)---(6)-------------------|
--6------(6)---(6)-------------------|------------------------------------|


E E S S E E E S S E E E S S E E E S S E
------------------------------------|-----------------------------6------|
------------------------------------|------------6-----------------------|
------------6----------------6------|-----8----------------6-------------|
-----8----------------6-------------|-------------------4-----(4)---(4)--|
-------------------4-----(4)---(4)--|--6-----(6)---(6)-------------------|
--6-----(6)---(6)-------------------|------------------------------------|


E E S S E E E S S E E E S S E E E S S E
-----8S--(6)-6-L-------------------|------------------------------------|
---------------L-----9------6------|------------------------------------|
-----------------------------------|-----8------6-----------------------|
-----------------------------------|----------------------8------6------|
-----------------------------------|--6-----(6)---(6)--9-----(9)---(9)--|
--6------(6)------9-----(9)---(9)--|------------------------------------|


E E S S E E E S S E Q E. S S S E E. S
-----8S--(6)-6-L-------------------|--6----6---6-6-6-6--6---6-|
---------------L-----9------6------|--6----6---6-6-6-6--6---6-|
-----------------------------------|--8----8---8-8-8-8--8---8-|
-----------------------------------|--8----8---8-8-8-8--8---8-|
-----------------------------------|--6----6---6---6----6---6-|
--6------(6)------9-----(9)---(9)--|--------------------------|


E E E S E S S S S S S S E E E S S E E E E
--6--6--6--6-6--6-6-6-6-6-6-6-|--(6)--6--6------------------|
--6--6--6--6-6--6-6-6-6-6-6-6-|---7---7--7--x-x-6--6--6-----|
--8--8--8--8-8--8-8-8-8-8-8-8-|---6---6--6--x-x-6--6--6-----|
--8--8--8--8-8--8-8-8-8-8-8-8-|---4---4--4--x-x-6--6--6-----|
-----6--6--6-6--6-6-6-6-6-6-6-|-------------x-x-4--4--4-----|
------------------------------|-----------------------------|


Q E S E S S S S S S S E E E S S E E E E
--6----6--6-6--6-6-6-6-6-6-6-|--6--6--6------------------|
--7----7--7-6--7-7-7-7-6-6-6-|--7--7--7--x-x-6--6--6-----|
--8----8--8-8--8-8-8-8-8-8-8-|--6--6--6--x-x-6--6--6-----|
--8----8--8-8--8-8-8-8-8-8-8-|--4--4--4--x-x-6--6--6-----|
--6----6--6-6--6-6-6-6-6-6-6-|-----------x-x-4--4--4-----|
-----------------------------|---------------------------|


Q E S E S S S S S S S E E E S S E E E E
--6----6--6-6--6-6-6-6-6-6-6-|--6--6--6------------------|
--7----7--7-6--7-7-7-7-6-6-6-|--7--7--7--x-x-6--6--6-----|
--8----8--8-8--8-8-8-8-8-8-8-|--6--6--6--x-x-6--6--6-----|
--8----8--8-8--8-8-8-8-8-8-8-|--4--4--4--x-x-6--6--6-----|
--6----6--6-6--6-6-6-6-6-6-6-|-----------x-x-4--4--4-----|
-----------------------------|---------------------------|


Q E S E S S S S S S S E E E S S E E E E
--6----6--6-6--6-6-6-6-6-6-6-|--6--6--6------------------|
--7----7--7-6--7-7-7-7-6-6-6-|--7--7--7--x-x-6--6--6-----|
--8----8--8-8--8-8-8-8-8-8-8-|--6--6--6--x-x-6--6--6-----|
--8----8--8-8--8-8-8-8-8-8-8-|--4--4--4--x-x-6--6--6-----|
--6----6--6-6--6-6-6-6-6-6-6-|-----------x-x-4--4--4-----|
-----------------------------|---------------------------|


Q E. S S S E E S S E S E S S E S S E S E
---------------------------|-----------------------------|
--6----6---6-6-6-6--6--6-6-|--6--6-6--6-6-6--6-6-6--6-6--|
--8----8---8-8-8-8--8--8-8-|--8--8-8--8-8-8--8-8-8--8-8--|
--8----8---8-8-8-8--8--8-8-|--8--8-8--8-8-8--8-8-8--8-8--|
--6----6---6---6----6--6-6-|--6--6-6--6-6-6--6-6-6--6-6--|
---------------------------|-----------------------------|


E E S S E E E S S E E E S S E E E S S E
------------------------------------|-----------------------------6------|
------------------------------------|------------6-----------------------|
------------6----------------6------|-----8----------------6-------------|
-----8----------------6-------------|-------------------4-----(4)---(4)--|
-------------------4-----(4)---(4)--|--6-----(6)---(6)-------------------|
--6-----(6)---(6)-------------------|------------------------------------|


E E S S E E E S S E E E S S E E E S S E
------------------------------------|-----------------------------6------|
------------------------------------|------------6-----------------------|
------------6----------------6------|-----8----------------6-------------|
-----8----------------6-------------|-------------------4-----(4)---(4)--|
-------------------4-----(4)---(4)--|--6-----(6)---(6)-------------------|
--6-----(6)---(6)-------------------|------------------------------------|


E E S S E E E S S E E E S S E E E S S E
-----8S--(6)-6-L-------------------|------------------------------------|
---------------L-----9------6------|------------------------------------|
-----------------------------------|-----8------6-----------------------|
-----------------------------------|----------------------8------6------|
-----------------------------------|--6-----(6)---(6)--9-----(9)---(9)--|
--6------(6)------9-----(9)---(9)--|------------------------------------|


E E S S E E E S S E E E S S E E E S S E
-----8S--(6)-6-L-------------------|------------------------------------|
---------------L-----9------6------|------------------------------------|
-----------------------------------|-----8------6----------------6------|
-----------------------------------|----------------------8-------------|
-----------------------------------|--6-----(6)---(6)--9-----(9)---(9)--|
--6------(6)------9-----(9)---(9)--|------------------------------------|


E E. S E E S E S E E E. S E E S E S E
---------------------------|---------------------------|
-------------------6-------|--------------6----7--6----|
--------------6-------6----|---------8--------------8--|
---------6-------6------6--|-----8-----8-----8---------|
-----8-----8---------------|--6------------------------|
--9------------------------|---------------------------|


E E. S E E S E S E E E. S E E S E S E
---------------------------|---------------------------|
-------------------6-------|--------------6----7--6----|
--------------6-------6----|---------8--------------8--|
---------6-------6------6--|-----8-----8-----8---------|
-----8-----8---------------|--6------------------------|
--9------------------------|---------------------------|


E E. S E E S E S E E E. S E E S E S E
---------------------------|---------------------------|
-------------------6-------|--------------6----7--6----|
--------------6-------6----|---------8--------------8--|
---------6-------6------6--|-----8-----8-----8---------|
-----8-----8---------------|--6------------------------|
--9------------------------|---------------------------|


E E. S E E S E S E E E. S E E S E S E
---------------------------|---------------------------|
-------------------6-------|--------------6----7--6----|
--------------6-------6----|---------8--------------8--|
---------6-------6------6--|-----8-----8-----8---------|
-----8-----8---------------|--6------------------------|
--9------------------------|---------------------------|


E E. S E E S E S E Q E. S S S E E. S
---------------------------|--6----6---6-6-6-6--6---6-|
-------------------6-------|--6----6---6-6-6-6--6---6-|
--------------6-------6----|--8----8---8-8-8-8--8---8-|
---------6-------6------6--|--8----8---8-8-8-8--8---8-|
-----8-----8---------------|--6----6---6---6----6---6-|
--9------------------------|--------------------------|


E E E S E S S S S S S S E E E S S E E E E
--6--6--6--6-6--6-6-6-6-6-6-6-|--6--6--6------------------|
--6--6--6--6-6--6-6-6-6-6-6-6-|--7--7--7--x-x-6--6--6-----|
--8--8--8--8-8--8-8-8-8-8-8-8-|--6--6--6--x-x-6--6--6-----|
--8--8--8--8-8--8-8-8-8-8-8-8-|--4--4--4--x-x-6--6--6-----|
-----6--6--6-6--6-6-6-6-6-6-6-|-----------x-x-4--4--4-----|
------------------------------|---------------------------|


Q E S E S S S S S S S E E E S S E E E E
--6----6--6-6--6-6-6-6-6-6-6-|--6--6--6------------------|
--7----7--7-6--7-7-7-7-6-6-6-|--7--7--7--x-x-6--6--6-----|
--8----8--8-8--8-8-8-8-8-8-8-|--6--6--6--x-x-6--6--6-----|
--8----8--8-8--8-8-8-8-8-8-8-|--4--4--4--x-x-6--6--6-----|
--6----6--6-6--6-6-6-6-6-6-6-|-----------x-x-4--4--4-----|
-----------------------------|---------------------------|


Q E S E S S S S S S S E E E S S E E E E
--6----6--6-6--6-6-6-6-6-6-6-|--6--6--6------------------|
--7----7--7-6--7-7-7-7-6-6-6-|--7--7--7--x-x-6--6--6-----|
--8----8--8-8--8-8-8-8-8-8-8-|--6--6--6--x-x-6--6--6-----|
--8----8--8-8--8-8-8-8-8-8-8-|--4--4--4--x-x-6--6--6-----|
--6----6--6-6--6-6-6-6-6-6-6-|-----------x-x-4--4--4-----|
-----------------------------|---------------------------|


Q E S E S S S S S S S E E E S S E E E E
--6----6--6-6--6-6-6-6-6-6-6-|--6--6--6------------------|
--7----7--7-6--7-7-7-7-6-6-6-|--7--7--7--x-x-6--6--6-----|
--8----8--8-8--8-8-8-8-8-8-8-|--6--6--6--x-x-6--6--6-----|
--8----8--8-8--8-8-8-8-8-8-8-|--4--4--4--x-x-6--6--6-----|
--6----6--6-6--6-6-6-6-6-6-6-|-----------x-x-4--4--4-----|
-----------------------------|---------------------------|


Q E S E S S S S S S S E E E S S E E E E
--6----6--6-6--6-6-6-6-6-6-6-|--6--6--6------------------|
--7----7--7-6--7-7-7-7-6-6-6-|--7--7--7--x-x-6--6--6-----|
--8----8--8-8--8-8-8-8-8-8-8-|--6--6--6--x-x-6--6--6-----|
--8----8--8-8--8-8-8-8-8-8-8-|--4--4--4--x-x-6--6--6-----|
--6----6--6-6--6-6-6-6-6-6-6-|-----------x-x-4--4--4-----|
-----------------------------|---------------------------|


Q E S E S S S S S S S E E E S S E E E E
--6----6--6-6--6-6-6-6-6-6-6-|--6--6--6------------------|
--7----7--7-6--7-7-7-7-6-6-6-|--7--7--7--x-x-6--6--6-----|
--8----8--8-8--8-8-8-8-8-8-8-|--6--6--6--x-x-6--6--6-----|
--8----8--8-8--8-8-8-8-8-8-8-|--4--4--4--x-x-6--6--6-----|
--6----6--6-6--6-6-6-6-6-6-6-|-----------x-x-4--4--4-----|
-----------------------------|---------------------------|


Q E S E S S S S S S S E E E S S E E E E
--6----6--6-6--6-6-6-6-6-6-6-|--6--6--6------------------|
--7----7--7-6--7-7-7-7-6-6-6-|--7--7--7--x-x-6--6--6-----|
--8----8--8-8--8-8-8-8-8-8-8-|--6--6--6--x-x-6--6--6-----|
--8----8--8-8--8-8-8-8-8-8-8-|--4--4--4--x-x-6--6--6-----|
--6----6--6-6--6-6-6-6-6-6-6-|-----------x-x-4--4--4-----|
-----------------------------|---------------------------|


Q E. S S S E E. S E E E S S E E E E
--6----6---6-6-6-6--6---6-|--6--6--6------------------|
--6----7---6-6-7-7--6---6-|--7--7--7--x-x-6--6--6-----|
--8----8---8-8-8-8--8---8-|--6--6--6--x-x-6--6--6-----|
--8----8---8-8-8-8--8---8-|--4--4--4--x-x-6--6--6-----|
--6----6---6---6----6---6-|-----------x-x-4--4--4-----|
--------------------------|---------------------------|


Q E S E S S S S S S S Q E S E S S S S S S S
--6----6--6-6--6-6-6-6-6-6-6-|--6----6--6-6--6-6-6-6-6-6-6-|
--6----6--6-6--6-6-6-6-6-6-6-|--6----6--6-6--6-6-6-6-6-6-6-|
--8----8--8-8--8-8-8-8-8-8-8-|--8----8--8-8--8-8-8-8-8-8-8-|
--8----8--8-8--8-8-8-8-8-8-8-|--8----8--8-8--8-8-8-8-8-8-8-|
--6----6--6-6--6-6-6-6-6-6-6-|--6----6--6-6--6-6-6-6-6-6-6-|
-----------------------------|-----------------------------|


Q E S E S S S S S S S E S S E S E E S S S E W
--6----6--6-6--6-6-6-6-6-6-6-|--6--6-6-6--6-6--6--6-6-6-6--|--6----------------|
--6----6--6-6--6-6-6-6-6-6-6-|--6--6-6-6--6-6--6--6-6-7-7--|--7----------------|
--8----8--8-8--8-8-8-8-8-8-8-|--8--8-8-8--8-8--8--8-8-8-8--|--8----------------|
--8----8--8-8--8-8-8-8-8-8-8-|--8--8-8-8--8-8--8--8-8-8-8--|--8----------------|
--6----6--6-6--6-6-6-6-6-6-6-|--6--6-6-6--6-6--6--6-6-6-6--|--6----------------|
-----------------------------|-----------------------------|-------------------|


S S S S S S E E E E S S S S S S E E E E
----6-----------------------|----6-----------------------|
--9---(9)-------6-----6-----|--9---(9)-------6-----6-----|
----------6---6----8-----8--|----------6---6----8-----8--|
--6---------6------8-----8--|--6---------6------8-----8--|
----------------------------|----------------------------|
----------------------------|----------------------------|


S S S S S S E E E E S S S S S S E E T T S E
----6-----------------------|-------------------------------|
--9---(9)-------6-----6-----|--------------------6h-7p-6----|
----------6---6----8-----8--|--6---6-6---6---------------8--|
--6---------6------8-----8--|----6------------8-------------|
----------------------------|--4-------4---6----------------|
----------------------------|-------------------------------|


S S S S S S E S E S E S S S S S S E E E E
---------------------------|----6-----------------------|
---------------------------|--9---(9)-------6-----6-----|
--6---6-6---6------8--8----|----------6---6----8-----8--|
----6------------8------8--|--6---------6------8-----8--|
--4-------4---6------------|----------------------------|
---------------------------|----------------------------|


S S S S S S E E E E S S S S S S E E E E
----6-----------------------|----6-----------------------|
--9---(9)-------6-----6-----|--9---(9)-------6-----6-----|
----------6---6----8-----8--|----------6---6----8-----8--|
--6---------6------8-----8--|--6---------6------8-----8--|
----------------------------|----------------------------|
----------------------------|----------------------------|


S S S S S S E E S S E S S S S S S E E T T S E
-----------------------------|-------------------------------|
-----------------------------|--------------------6h-7p-6----|
--6--6----6---6-------8-8----|--6---6-6---6---------------8--|
----(6)-----6------8------8--|----6------------8-------------|
--4-------4-----6------------|--4-------4---6----------------|
-----------------------------|-------------------------------|


S S S S S S E E E E S S S S S S E E E E
----6-----------------------|----6-----------------------|
--9---(9)-------6-----6-----|--9---(9)-------6-----6-----|
----------6---6----8-----8--|----------6---6----8-----8--|
--6---------6------8-----8--|--6---------6------8-----8--|
----------------------------|----------------------------|
----------------------------|----------------------------|


S S S S S S E E E E
----6-----------------------||
--9---(9)-------6-----6-----||
----------6---6----8-----8--||
--6---------6------8-----8--||
----------------------------||
----------------------------||




Duration Legend
---------------
W - whole
H - half
Q - quarter
E - 8th
S - 16th
T - 32nd
X - 64th
. - note dotted
|-n-| - n-tuplets


Tablature Legend
----------------
L - tied note
x - dead note
g - grace note
(n) - ghost note
> - accentuded note
NH - natural harmonic
AH - artificial harmonic
TH - tapped harmonic
SH - semi harmonic
PH - pitch harmonic
h - hammer on
p - pull off
b - bend
br - bendRelease
pb - preBend
pbr - preBendRelease
brb - bendReleaseBend
\n/ - tremolo bar dip
\n - tremolo bar dive
-/n - tremolo bar Release up
/n\ - tremolo bar inverted dip
/n - tremolo bar return
-\n - tremolo bar Release down
S - shift slide
s - legato slide
/ - slide into from below or out of upwards
\ - slide into from above or out of downwards
~ - vibrato
W - wide vibrato
tr - trill
TP - tremolo picking
T - tapping
S - slap
P - pop
< - fade in
^ - brush up
v - brush down