rhcpfrance
Prochain concert dans :
Flash info :
Forum, à la une :
Tablature

basse The Brothers Cup



The Brothers Cup
By the Red Hot Chili Peppers
From the album Freakey Styley
Tabbed by Martin Peters
E=D

Bass
Intro:
G-|------------------|--------------------|
D-|------------------|------------8-8--5--|
A-|-5--3--5-5--5-3-5-|-5-5--3--5----------|
E-|------------------|--------------------|

G-|------------------|---------------------|
D-|------------------|-3-------5-3-6-5-3---|
A-|-5--3--5-5--5-3-5-|-------------------5-|
E-|------------------|---------------------|

Reapet two times

Verse bass figure:
G-|------------------|--------------------|
D-|------------------|------------8-8--5--|
A-|-5--3--5-5--5-3-5-|-5-5--3--5----------|
E-|------------------|--------------------|

G-|------------------|---------------------|
D-|------------------|-3-------5-3-6-5-3---|
A-|-5--3--5-5--5-3-5-|-------------------5-|
E-|------------------|---------------------|

Chorus:
G-|------------------|-------------------|------------------|
D-|------------------|-------------------|------------------|
A-|-5--3-------------|-5--3----3-3--1----|-5--3-------------|
E-|-------6--3---1-3-|-------6---------3-|-------6--3---1-3-|

G-|-----------------|
D-|-----------------|
A-|-5--3-----3-3--1-|
E-|-------6---------|

Interlude:
G-|------------------|------------------|
D-|------------------|------------------|
A-|------------------|------------------|
E-|-0--0-0-0-0--0-0--|-0--0-0-0-0--0-0--|
T T T T T T T T T T T T T T

Reapet four times

G-|--------------------|----------------------|
D-|--------------------|----------------------|
A-|--------------------|----------------------|
E-|-0-0-3-1-3--0-0-1-3-|-0-0-3-1-3-0-0--3-1-3-|
T T T T T T T T T T T T T T T T T T T
Reapet four times

Ending of interlude:
G-|----------------------------|--------------|
D-|----------------------------|--------------|
A-|-12-12-12-12----12-12-12-12-|--------------|
E-|----------------------------|--3/15--------|

Ending:
G-|------------|
D-|------------|
A-|--7~~~~~~~~-|
E-|------------|