rhcpfrance
Prochain concert dans :
Flash info :
Forum, à la une :
Tablature

guitare On Mercury



Mxtabs.net - Red Hot Chili Peppers / On Mercury
Artist - Red Hot Chili Peppers
Song - On Mercury
Album - By The Way
Tabber - RHCPBass
E-mail - (hornet401@netzero.net)

Standard tuning - EADG (Low-to-High)


Intro/Verse:

I've got myself...

G|------------------------------|-----------------------||
D|------------------------------|--7--------------------||
A|------99------10-10-9-9-7-7-9-|---7---7-7-9-9-10-10-9-||x4
E|--77--------------------------|-----------------------||

Pre-chorus:

Come again and tell me...

G|---------------------------------||
D|--------7------------------------||
A|---10------10-------9----------9-||x2
E|------------------------9-9-10---||

Chorus/Solo:

Memories of everything...

G|--------------------------|
D|---------7-7--------------|
A|--9-9---5-5--------7-7--7-|x3
E|-7-7--------------5-5-----|

G|-----------------------------------||
D|---------7-7-----------------------||
A|--9-9---5-5--------7-7--7-----4----||3rd time
E|-7-7--------------5-5------------6-||

This is one badass song by RHCP and one of the best off their new album.