rhcpfrance RhcpFrance
Concert du jour :
Louisville, KY - U.S.A
Sélection du moment :
Tablature

guitare Tear



"Tear"
---------------------------

from "By The Way"
Music by KiedisFleaFruscianteSmith
Warner Bros. Music 2002
BUY THE TAB BOOK!>


*****************************************************
*****************************************************
version 1 :

Transcribed by: Jon Caplan
Email: pepperpunk44@yahoo.com

This is the keyboard parts if they were played on guitar plus the guitar parts

-------|-------|-------|------|-----------------------------------------------
---5---|---3---|---5---|------|-----------------------------------------------
---5---|---4---|---5---|------|-----------------------------------------------
-------|-------|-------|------|-----------------------------------------------
-3-----|-------|-0-----|------|-----------------------------------------------
-------|-3-----|-------|------|-----------------------------------------------
Part 1: each measure is 4 counts and the last measure is silent.

-----3----|----------|----------|---------------------------------------------
---5---6-5|---4-6-5-3|-----5----|-5-----5-----5-------------------------------
---5------|---3------|---5---7--|---7-----7-----7-----------------------------
----------|----------|---7-----7|-----7-----7-----7---------------------------
-3--------|----------|-0--------|---------------------------------------------
----------|-0--------|----------|---------------------------------------------
Part 2

-3---3--|-3--3--|-5--5--|-5--5------------------------------------------------
-5---5--|-3--3--|-5--5--|-5--5------------------------------------------------
-5---5--|-4--4--|-5--5--|-5--5------------------------------------------------
-5---5--|-5--5--|-7--7--|-7--7------------------------------------------------
-3---3--|-5--5--|-7--7--|-7--7------------------------------------------------
--------|-3--3--|-5--5--|-5--5------------------------------------------------
Chorus: I'm not sure about this, i usually just play these chords

-1--1--|-3--3--|-5--5--|-7--7-------------------------------------------------
-1--1--|-5--5--|-7--7--|-9--9-------------------------------------------------
-2--2--|-5--5--|-7--7--|-9--9-------------------------------------------------
-3--3--|-5--5--|-7--7--|-9--9-------------------------------------------------
-3--3--|-3--3--|-5--5--|-7--7-------------------------------------------------
-1--1--|-------|-------|------------------------------------------------------


---5--------------------------------------------------------------------------
---5--------------------------------------------------------------------------
---5--------------------------------------------------------------------------
---7--------------------------------------------------------------------------
-0----------------------------------------------------------------------------
------------------------------------------------------------------------------
end of chorus

---------------|----------------|--------------------|------------------------
---5-6-8-6-5---|----------------|-----5---------5----|-----5---------5--------
-5-----------5-|---4-5-7-5-4---4|---5---7p5---5---7p5|---5---7p5---5---7p5----
---------------|-5-----------5--|-7---------7--------|-7---------7------------
---------------|----------------|--------------------|------------------------
---------------|----------------|--------------------|------------------------
Guitar interlude

--------------|-----------------|--------------------|------------------------
---5-6-8-6-5--|---------6-5-----|-----5---------5----|-----5---------5--------
-5-----------5|---4-5-7-----7-5-|---5---7p5---5---7p5|---5---7p5---7-5--------
--------------|-5---------------|-7---------7--------|-7---------7-9----------
--------------|-----------------|--------------------|------------------------
--------------|-----------------|--------------------|------------------------



#----------------------------------PLEASE NOTE--------------------------------#
#This file is the author's own work and represents their interpretation of the#
#song. You may only use this file for private study, scholarship, or research.#
#-----------------------------------------------------------------------------#
#-- File created with Instab - http://www.pconline.com/~smcarey/instab.html --#
#-----------------------------------------------------------------------------#

*****************************************************
*****************************************************
version 2 :

Tabbed by: Paul Heaney

Tear; organ - arr guitar.

Song opens with a C chord. Play and let ring;

e--------|
B-----5--|
G-----5--|
D-----5--|
A-----3--|
E--------|

The verses follow a C>G>Am pattern as below

C G Am
e-----------------------|
B-----5------3------5---|
G-----5------4------5---|
D-----5------5------7---|
A--3--3------5------7---|
E---------3------5------|

In alternate lines of the verse the following fills are heard;

C G Am
e----------------------------------------------------------|
B-----5-6-5-3------3-6-5-3-----5---5---------5-----5-------|
G-----5------------4-----------5-----5---5-----5-----5---5-|
D-----5------------5-----------7-------7---7-----7-----7---|
A--3--3------------5-----------7---------------------------|
E---------------3------------5-----------------------------|


CHORUS:

For the chorus the following chord sequence is repeated twice;

C Em/C Am F/A F Am F G
e---0-0---0-0---0-0---0-0---1-1---0-0---1-1---3---|
B---1-1-x-1-1-x-1-1-x-1-1-x-1-1-x-1-1-x-1-1-x-3---|
G---0-0-x-0-0-x-2-2-x-2-2-x-2-2-x-2-2-x-2-2-x-4---|
D---2-2-x-2-2-x-2-2-x-3-3-x-3-3-x-2-2-x-3-3-x-5---|
A---3-3---2-2---0-0---0-0---3-3---0-0---3-3---5---|
E---------0-0---------------1-1---------1-1---3---|

let the last G chord ring.

The chorus ends on Am while Anthony sings
"Say it now cause you never know"


SOLO:

e--------------------------------------------
B---5-6-8-6-5------------------------5--5----
G-------------5---4-5-7-5-4---4----5------5--
D---------------5-----------5----7-----------
A--------------------------------------------
E--------------------------------------------

e--------------------------------------
B------5--5--------5--5--------5--5----
G----5------5----5------5----5------5--
D--7-----------7-----------7-----------
A--------------------------------------
E--------------------------------------

e--------------------------------------------
B---5-6-8-6-5-----------6-5----------5--5----
G-------------5---4-5-7-----7-5----5------5--
D---------------5----------------7-----------
A--------------------------------------------
E--------------------------------------------

e-------------------------------------
B------5--5--------5--5-----------8---
G----5------5----5------5---5--7--9---
D--7-----------7------------7--9--10--
A-------------------------------------
E-------------------------------------


BRIDGE:

In the tab below the notes are to be picked extreamly
fast, and note that for the purposes of this tab each
note represents 1/4 of a bar of picking.

e---12-12-12-12-10-10-10-10-12-12-12-12-10-10-13-13-
B---------------------------------------------------
G---------------------------------------------------
D---------------------------------------------------
A---------------------------------------------------
E---------------------------------------------------

e---12-12-16-16-12-12-12-12-10-10-8-10--------------
B---------------------------------------------------
G---------------------------------------------------
D---------------------------------------------------
A---------------------------------------------------
E---------------------------------------------------

The trumpt solo following simply follows the chords for
the verses: C > G > Am > Am

(bob_bobiadas@hotmail.com)


*****************************************************
*****************************************************
version 3 :

Transcribed by: Richard Armstrong
Email: Hydromaniac@hotmail.com

Just the solo, by request.
/------ x4 -----\
e|-----------------|-----------------------|---------------|
B|-----------------|-----------------------|---------------|
G|-9-10-12-10-9----|-----------------------|-------9-------|
D|--------------10-|----9-10-12-10-9----9--|----10---12p10-|
A|-----------------|-10--------------10----|-12------------|
E|-----------------|-----------------------|---------------|

/------ x3 -----\
e|-----------------|-----------------------|---------------|----------|
B|-----------------|-----------------------|---------------|----------|
G|-9-10-12-10-9----|------------10-9-------|-------9-------|--------9-|
D|--------------10-|----9-10-12------12-10-|----10---12p10-|-----12---|
A|-----------------|-10--------------------|-12------------|-12--10---|
E|-----------------|-----------------------|---------------|----------|
End


*****************************************************
*****************************************************
version 4 :

tabalaturé par Rémo Bergonaute = bergonaute@club-internet.fr

C G Am
------------------------------
-8------5---------------------
-5------5-----4-----5---------
--------5-----5-----7---------
------3-------5-----7---------
------------3-----5-----------



->variations

"tell me where you want me

(en arpèges)
-----------3---------------------------5--------
--------5----6--5------------6-5-3-----5--------
--------5-----------------4------------5--------
--------5-----------------5------------7--------
------3-------------------5------------7--------
-------------------------3------------5---------



CHORUS =

"All in all and I'm...loving every rise and fall...the sun will make and I will take

"in the end all will be forgiven when surrender rises high and I

C Am F
--------*-*-------------------------------------------------------
---5-5--*-*-------------------------------------------------------
---5-5--5-5----------------------------------------10--10---10--10
---5-5--5-5-----------7-7--7-7---------------------10--10---10--10
---3-3--2-2-----------7-7--7-7---------------------8---8----7---7-
---3-3--*-*-----------5-5--3-3------------------------------------


breath to be sure of this..........

gave what I came to give

Dm G
---5-----------3---------------
---6-----------3---------------
---7-----------4---------------
---7-----------5---------------
---5-----------5---------------
---5-----------3---------------


Am Am
say it now because you never know......



"solo en ARPèèèèèGES"

C G
---------3------------------------------------------------------------------------------
-----5-6---6-5-------------------3------------------------------------------------------
----------------5-----------4-5-----5--4----4---------5------------5--------------------
--------------------------5---------------5---------5----7p^5----5-----7po5-------------
--3-----------------------------------------------7------------7------------------------
----------------------------------------------------------------------------------------

et (ou) =
C G Am
----0--1--3--1--0-------------------------------------------0---------------0-----------
-------------------1---------0--1--3--1--0-----0---------1-----3po1------1------3po1----
--------------------------0-----------------0---------2---------------2-----------------
----------------------------------------------------------------------------------------
--3-------------------------------------------------------------------------------------
----------------------------------------------------------------------------------------

C G Am
----0--1--3--1--0---------------------1--0----------------0---------------0-------------
-------------------1---------0--1--3--------3--1---------1-----3po1------1------3po1----
--------------------------0--------------------------2---------------2------------------
----------------------------------------------------------------------------------------
--3-------------------------------------------------------------------------------------
----------------------------------------------------------------------------------------

verse
chorus

and then ....... :

TRRREMOLO PART !!!!!!!

*****tremolo*rapide**********************************************************************
--12--------10-----------------12-------10---12--13-----------12--10--16-------12-10------
--13--------12-----------------13-------12---12--12-----------13--12--15-------13-12-13-15
--14--------12-----------------14-------12---12--12-----------14--12--16-------14-12-14-16
--15--------14-----------------15-------14--------------------15--14-----------15-12-15-17
------------------------------------------------------------------------------------------
------------------------------------------------------------------------------------------
------------------------------------------------------------------------------------------


SOLO DE TROMPETTE : accords (barrés) : C G Am (2 fois) + e-----------------------
b-----8 bend^10---5--5--
g-----------------------


tbbed by Rémo Bergonaute