rhcpfrance
Prochain concert dans :
Flash info :
Forum, à la une :
Tablature

batterie Throw Away Your Television



Here it is throw away ur television for bass.

From the beginning of the song to 1:20 play the intro/verse which is:
G-|-------------------------------------------------------------|
D-|-------------------------------------------------------------|
A-|--------------------------------------------7-7--5--7------|
E-|---5-5-5--3--5-5--3--5--3--0-0-0---0----------------7-|

Then from 1:20 through 1:37 u play the chorus which goes like this:
G-|-----------------------------------------------------------------------------------------------------------------------------------------
D-|----7--7--7--7---9--9—9/10---7--7--7--7---9--9—9/10---7--7--7--7---9--9—9/10--5---5----5--5---3--3--3—3/7-
A-|------7--7--7--7---9--9------------7--7--7--7--9--9-------------7--7--7--7---9--9---------------------------------------------
E-|------------------------------------------------------------------------------------------------------------------------------------------

Then from 1:37 through 2:16 you go back to:
G-|-------------------------------------------------------------|
D-|-------------------------------------------------------------|
A-|--------------------------------------------7-7--5--7------|
E-|---5-5-5--3--5-5--3--5--3--0-0-0---0----------------7-|

Then from 2:16 through 2:32 you go back to:
G-|-----------------------------------------------------------------------------------------------------------------------------------------
D-|----7--7--7--7---9--9—9/10---7--7--7--7---9--9—9/10---7--7--7--7---9--9—9/10--5---5----5--5---3--3--3—3/7-
A-|------7--7--7--7---9--9------------7--7--7--7--9--9-------------7--7--7--7---9--9---------------------------------------------
E-|------------------------------------------------------------------------------------------------------------------------------------------

Then from 2:32 through 3:03 you have the interlude which goes like this:
G-|-----------------------------------------------------------------------------------------------------------------------------------------
D-|---777777777777---999999999999—12-12-12-12-12-12-12-12-12-12-12--14---12-12-12-12-12-12-12-12
A-|------------------------------------------------------------------------------------------------------------------------------------------
E-|------------------------------------------------------------------------------------------------------------------------------------------
Play that about 4 times and then return 2:
G-|-------------------------------------------------------------|
D-|-------------------------------------------------------------|
A-|--------------------------------------------7-7--5--7------|
E-|---5-5-5--3--5-5--3--5--3--0-0-0---0----------------7-|

Play this until the end. Well I hoped u enjoyed and it. ROCK ON!