rhcpfrance
Prochain concert dans :
Flash info :
Forum, à la une :
Tablature

basse Universally Speaking



Song: Universally Speaking
Artist: Red Hot Chili Peppers
Tabbed by: eddie_n85@hotmail.com
Album: By the way



Main riff -On this riff all the notes apart from the little fill bit should be allowed to ring

------------7-----7-----7------7-----7----------6--6--7---
-----------------------------------------------5--------------
---5----------5-----5------5-----5------5-------------------
--------------------------------------------------------------

------------7-----7-----7------7-----7----------6--6--7---
-----------------------------------------------5--------------
---7----------7-----7------7-----7------7-------------------
--------------------------------------------------------------


Chorus

-----------------------9/--16--14---------
------------------7------------------14---
--(0)-----0--7---------------------------- x2
----------------------------------------------

------------------------------------
-----------------------------------
--------------------2-2---2-2---
--3--3--3--3--3----------------
After you have done those bits twice go

------------------------------------
-----------------------------------
------------------------------------
---(5)----7-7--7---7---------------- This is the only bit I’m not sure about


Outro

--14------------14---------------14----------
-------14------------14---------------14-----
----------12------------12------------------
--------------------------------------------
I think flea changes this first bit slightly each time but he uses
the same notes so just mess around with it

--12------------12---------------12----------
-------12------------12---------------12-----
------------10------------10------------------ x2
------------------------------------------------

----------------------
-----------------------
-----------------------
-----10--10--10—10--10-