rhcpfrance RhcpFrance
Concert du jour :
Louisville, KY - U.S.A
Sélection du moment :
Tablature

guitare Road Trippin



ROAD TRIPPIN'

from "Californication"
Music by KiedisFleaFruscianteSmith
Warner Bros. Music 1999


Transcribed by Val Nalini

Main Riff

|-------3------------|-3-----------3-----|-------------------|--------------------------|
|--------------0-----|-------0-----------|-----5-------------|-4-----------4------------|
|--------------------|-------------------|------------0------|-------0------------------|
|---2-------2-----2--|----2-----2-----2--|-------------------|--------------------------|
|--------------------|-------------------|-3---3---3-----3---|-2---2----2-----2---------|
|-------0------------|-0-----------------|-------------------|--------------------------|

Variation

|-------3------------|-3-----5-----3-----|-------------------|--------------------------|
|--------------0-----|-------------------|-----5-------------|-4-----------4------------|
|--------------------|-------------------|------------0------|-------0------------------|
|---2-------2-----2--|----2-----2-----2--|-------------------|--------------------------|
|--------------------|-------------------|-3---3---3-----3---|-2---2----2-----2---------|
|-------0------------|-0-----------------|-------------------|--------------------------|

Chorus

|---0------------0-----|--------------------|---------------------|---------------------------|
|----------1-----------|-3------------3-----|-5-------------5-----|-12----------12------------|
|----------------------|--------0-----------|--------0------------|-----12--------------12----|
|-------------------2--|-----0-----------0--|-----5------------5--|---------12-------------12-|
|---0---2-----0--------|-2---------2--------|-3---------3---------|-10--------------10--------|
|----------------------|--------------------|---------------------|---------------------------|

Interlude

|--------------------|--------------------|---------------------|---------------------|
|-8------------8-----|--------------------|-5-------------5-----|-7-------------7-----|
|--------7-----------|-6------------6-----|---------5-----------|---------5-----------|
|-----9--------------|--------5-----------|------5--------------|------7--------------|
|-7---------7--------|-----7--------------|-3----------3--------|-5----------5--------|
|--------------------|-5---------5--------|---------------------|---------------------|

1.
|--------------------|--------------------|---------------------|-5-------------5-----|
|-8------10----8-----|-6------------6-----|-5-------------5-----|---------4-----------|
|--------------------|--------------------|----------5----------|------5--------------|
|-----9--------------|--------5-----------|-------5-------------|-4----------4--------|
|-7----------7-------|-----7--------------|-3----------3--------|---------------------|
|--------------------|-5---------5--------|---------------------|---------------------|

2.
|--5--------------5--|-----8------5-------|-8-------11-------8--|----5-------2--------|
|---------4-------4--|-----4------4-------|-7-------10-------7--|----4-------1--------|
|--------------------|--------------------|-8-------11-------8--|----5-------2--------|
|--4---4-----4-------|-4------4-------4/7-|-----10--------7-----|-4-------1-------1---|
|--------------------|--------------------|---------------------|---------------------|
|--------------------|--------------------|---------------------|---------------------|

Outro

|-----3------------3-|------------3-------|--------3------------|
|------------0-------|-----0--------------|-0---------------0---|
|--------------------|--------------------|---------------------|
|--2------2-----2----|--2------2------2---|-----2-------2-------|
|--------------------|--------------------|---------------------|
|--------------------|--------------------|---------------------|

1.,2. 3.
|----3-------------3-|-(3)----------3-----|-------3------------|----------3--------------|-3--|
|-----------0--------|--------0-----------|-0--------------0---|--0----------------0-----|----|
|--------------------|--------------------|--------------------|-------------------------|----|
|-2------2------2----|-(2)-2-----2------2-|----2-------3-------|-(2)---2--------2-----2--|----|
|--------------------|--------------------|--------------------|-------------------------|----|
|--------------------|--------------------|--------------------|-------------------------|----|