rhcpfrance RhcpFrance
Concert du jour :
Louisville, KY - U.S.A
Sélection du moment :
Tablature

guitare This Velvet Glove



THIS VELVET GLOVE

from "Californication"
Music by KiedisFleaFruscianteSmith
Warner Bros. Music 1999
BUY THE TAB BOOK!>

Transcribed by: Vedran Rasic
Email: moron_brother@hotmail.com

ICQ: 14398518

h - hammer on
p - pull off
b - bend
r - release bend
x - muted note (or Rake)
/ - slide up
\ - slide down
v or ~ - vibrato
t - right hand tap (eg. t10)
^ - Harmonic (eg. ^12)

-|--------------------------|--------------------------|----------------------
-|--------------------------|--------------------------|----------------------
-|-----5-7---5-7------------|----5-7---5-7-------------|----------------------
-|--7------5----------------|-7------5-----------------|----------------------
-|---------------8-7-8-7---7|--------------8-7--8-7----|----------------------
-|--------------------------|-----------------------6-8|----------------------
INTRO, G1 |-Bass---| |---Bass--|

-|-|5--5-5------------------|-5--5-5-------------------|----------------------
-|-|6--6-6----8-8---6-6-6-6-|-6--6-6----8-8----6-6-6-6-|----------------------
-|-|7--7-7--8-8-8-6-6-6-6-6-|-7--7-7--8-8-8-6--6-6-6-6-|----------------------
-|-|7--7-7--9-9-9-7-7-7-7-7-|-7--7-7--9-9-9-7--7-7-7-7-|----------------------
-|-|5--5-5-101010-8-8-8-8-8-|-5--5-5-101010-8--8-8-8-8-|----------------------
-|-|-------101010-8-8-8-8-8-|--------101010-8--8-8-8-8-|----------------------
INTRO/VERSE, G2 I'm not sure about the positions of this chords...

-|--------------------------|-5------------------------|---|------------------
-|--8--6-5------------------|----8-5-------------------|---|------------------
-|----------5--5/7----------|---------5-7--7-7-7-----7-|(7)|------------------
-|--------------------------|--------------------------|---|------------------
-|--------------------------|--------------------------|-5^|------------------
-|--------------------------|--------------------------|---|------------------
G1

-|-|5-5-5-------------------|-5-5-5------------------------|------------------
-|-|6-6-6----8-8-6-6-6-6-6--|-6-6-6----8-8--6-6-6-6-6-6-6-6|------------------
-|-|7-7-7--8-8-8-6-6-6-6-6--|-7-7-7--8-8-8--6-6-6-6-6-6-6-6|------------------
-|-|7-7-7--9-9-9-7-7-7-7-7--|-7-7-7--9-9-9--7-7-7-7-7-7-7-7|------------------
-|-|5-5-5-101010-8-8-8-8-8--|-5-5-5-101010--8-8-8-8-8-8-8-8|------------------
-|-|------101010-8-8-8-8-8--|-------101010--8-8-8-8-8-8-8-8|------------------
G2(Repeat this chords through the verse)

-|--------------------------|----------------------8x8x----|------------------
-|--------------------------|----------------------8x8x----|------------------
-|--------------------------|------------------------------|------------------
-|--------------------------|------------------------------|------------------
-|----5^----5^--------------|---5^---5^-----------------5^-|------------------
-|--------------------------|------------------------------|------------------
VERSE, G1 2x

-|--------------------8x8x--|------------------------------|------------------
-|--------------------8x8x--|------------------------------|------------------
-|--------------------------|------------------------------|------------------
-|--------------------------|------------------------------|------------------
-|----5^----5^------------5^|---5^---5^--------------------|------------------
-|--------------------------|------------------------------|------------------


-|--------8x8x--------------|------8x8x--------------------|------------------
-|--------8x8x--------------|------8x8x--------------------|------------------
-|--------------------------|------------------------------|------------------
-|--------------------------|------------------------------|------------------
-|------------5^-----5^--5^-|-----------5^-----------------|------------------
-|--------------------------|------------------------------|------------------


-|--------------------------|------------------------------|------------------
-|--------------------------|------------------------------|------------------
-|-----5-7---5-7------------|----5-7---5-7-----------------|------------------
-|--7------5----------------|-7------5---------------------|------------------
-|---------------8--8---8-8-|--------------8----8-8---8-8--|------------------
-|--------------------------|------------------------------|------------------
2nd Intro, G1

-|--------------------------|-5--------------------8x8x----|------------------
-|--8--6-5------------------|----8-5---------------8x8x----|------------------
-|----------5-7---7----7-7--|---------5-7------------------|------------------
-|--------------------------|------------------------------|------------------
-|--------------------------|---------------------------5^-|------------------
-|--------------------------|------------------------------|------------------


-|-----8xx8x8xx-------8x8x--|------8x8x--------------------|------------------
-|-----8xx8x8xx-------8x8x--|------8x8x--------------------|------------------
-|--------------------------|------------------------------|------------------
-|--------------------------|------------------------------|------------------
-|---5^--------5^--5^-----5^|-----------5^-----------------|------------------
-|--------------------------|------------------------------|------------------
2nd Verse, G1

-|--------8x8xx------8x8xx--|------8x8xx-------------------|------------------
-|--------8x8xx------8x8xx--|------8x8xx-------------------|------------------
-|--------------------------|------------------------------|------------------
-|--------------------------|------------------------------|------------------
-|------5^-----5^--5^-----5^|-----------5^-----------------|------------------
-|--------------------------|------------------------------|------------------


-|-12-12-12-12-12-12-12-17----17-17-17----19-17-17-|--------------------------
-|-15-15-15-15-15-15-15-20b22-20-20-20b22----22-22-|--------------------------
-|-14-14-14-14-14-14-14----------------------------|--------------------------
-|----12-------12----------------------------------|--------------------------
-|-------------------------------------------------|--------------------------
-|-------------------------------------------------|--------------------------
Chorus (Its not 100% correct) 3x

-|-15----15-15-15----15----15-15--------------------------------------------|-
-|-18b20-18-18-18b20-18b20-18-18b20---10------------------------------------|-
-|------------------------------------12b14vvvvvvvvvvvvvvvvv----------------|-
-|--------------------------------------------------------------------------|-
-|--------------------------------------------------------------------------|-
-|--------------------------------------------------------------------------|-


-|--5-5-5-5-5-5----------------|----------------5--5-5-5-5-5--|---------------
-|--6-6-6-6-6-6---5-5-5-5-5-5--|--5-5-5-5-5-5---5--5-5-5-5-5--|---------------
-|*-7-7-7-7-7-7---5-5-5-5-5-5-*|--5-5-5-5-5-5---5--5-5-5-5-5--|---------------
-|*-7-7-7-7-7-7---5-5-5-5-5-5-*|--5-5-5-5-5-5---7--7-7-7-7-7--|---------------
-|--5-5-5-5-5-5---7-7-7-7-7-7--|--3-3-3-3-3-3---7--7-7-7-7-7--|---------------
-|-----------------------------|----------------5--5-5-5-5-5--|---------------
(Chords in chorus) 3x

-|--------------------------------------------------------------|-------------
-|--------15----------------------------------15----------------|-------------
-|-14--17-------14--14-14---14-14-14---14--17-------14---14-14--|-------------
-|-----------17----------------------------------17-------------|-------------
-|--------------------------------------------------------------|-------------
-|--------------------------------------------------------------|-------------
(after the 1st Chorus) Repeat

-8x8x------|-|--------------|-------------|------------------|----------------
-8x8x------|-|10-10-101010--|12-12-121212-|-15--15--15-15-15-|-17--17---------
-----------|-|-9--9--9-9-9--|-9--9--9-9-9-|-12--12--12-12-12-|-14--14---------
-----------|-|-7--7--7-7-7--|-9--9--9-9-9-|-12--12--12-12-12-|-14--14---------
------5^---|-|-0--0--0-0-0--|-0--0--0-0-0-|--0---0---0--0--0-|--0---0---------
-----------|-|--------------|-------------|------------------|----------------
1stVerse... (after verse2)2x 2x 2x

------|-----------|-|-----15-17---------------------------15-17---------------
-17/20|-20vvvvvv--|-|-18-----------15--15-15--15-15----18----------15---15----
------|-----------|-|-----------17------------------------------17------------
------|-----------|-|---------------------------------------------------------
------|-----------|-|---------------------------------------------------------
------|-----------|-|---------------------------------------------------------
Repeat Chorus... (after 2nd Chorus)

---------|-8x8x------|--------------------------------------------------------
-15-15---|-8x8x------|--------------------------------------------------------
---------|-----------|--------------------------------------------------------
---------|-----------|--------------------------------------------------------
---------|------5^---|--------------------------------------------------------
---------|-----------|--------------------------------------------------------
Repeat 2ndVerse..