rhcpfrance RhcpFrance
Concert du jour :
Louisville, KY - U.S.A
Sélection du moment :
Tablature

guitare Porcelain



PORCELAIN

from "Californication"
Music by KiedisFleaFruscianteSmith
Warner Bros. Music 1999
BUY THE TAB BOOK!>

Transcribed by: stratoman
Email: stratoman@cougar-zone.org

this one is so pretty
play it with a tremolo effect

---------------------|-----------------|--------------------------------------
--2------------------|-------------0---|-2------------------------------------
---------------------|-----------------|--------------------------------------
---------------------|-----------------|--------------------------------------
---------------------|-----------------|--------------------------------------
---------------------|-----------------|--------------------------------------
Por - c'lain Are you wasting....

----------------|-----------|-----------|-------------------------------------
--2-------------|-----------|-----------|-------------------------------------
----------------|-----------|-2---------|-------------------------------------
----------------|-----4-----|-----------|-------------------------------------
----------------|-----------|-----------|-------------------------------------
----------------|-----------|-----------|-------------------------------------
are you missing... Drifting.........

--2--2--2--4--5--0---------|------------|--2--2--2--4--5-|-7--5--4--2---4--5|-
--------------------2--2p0-|-2----------|----------------|------------------|-
---------------------------|------------|----------------|------------------|-
---------------------------|------------|----------------|------------------|-
---------------------------|------------|----------------|------------------|-
---------------------------|------------|----------------|------------------|-
Por - c'lain Do you... Can you bear...

-0------------|--------------------|----------|-----------------|-------------
----2---------|-3-----------2------|---2------|--3--------2-----|-------------
--------------|-4-----------2------|---2------|--4--------2-----|-------------
--------------|-4-----------4------|---2------|--4--------2-----|-------------
--------------|-2-----------4------|---0------|--2--------0-----|-------------
--------------|-------------2------|----------|-----------------|-------------
Drifting... Lit - tle____ lune. All day

----------------------|----------|-0---0-0--0--0--0-0--0-|-0-0-0-0--0--0--0-0-
--3-----------2-------|----2-----|-0--------0----------0-|--------------------
--4-----------2-------|----2-----|-1---------------------|--------------------
--4-----------4-------|----2-----|-2---------------------|--------------------
--2-----------4-------|----0-----|-2---------------------|--------------------
--------------2-------|----------|-0---------------------|--------------------
Lit - tle____ lune.

--------------|-------------|-----------------|---------------|---------------
-2------------|----------0--|-2---------------|---------------|---------------
--------------|-------------|-----------------|---2-----------|-----2---------
--------------|-------------|-----------------|---------------|---------------
--------------|-------------|-----------------|---------------|---------------
--------------|-------------|-----------------|---------------|---------------
Por - c'lain Do you carry... Someone... fading

-------------------|-------------|----2--2--2--4--5-|-0--------------------|--
-------------------|-------------|------------------|----2--------------0--|--
-------------------|-------------|------------------|----------------------|--
-------------------|-4-----------|------------------|----------------------|--
-------------------|-------------|------------------|----------------------|--
-------------------|-------------|------------------|----------------------|--
Drifting and (...) fading away Por - c'lain

------------|------2--2--2--4--5--|-7--5--4--2--4--5-|-0-------------|--------
-2----------|---------------------|------------------|------2--------|--------
------------|---------------------|------------------|---------------|--------
------------|---------------------|------------------|---------------|--------
------------|---------------------|------------------|---------------|--------
------------|---------------------|------------------|---------------|--------
Are you... Are you missing... Nod-din...

---------||---------------------|---------0--------|-------3--------|---------
-7---7\--||-3-----------2-------|---2--------2-----|-3--------3-----|---------
---------||-4-----------2-------|---2-----------2--|-4-----------4--|---------
---------||-4-----------4-------|---2--------------|-4--------------|---------
---------||-2-----------4-------|---0--------------|-2--------------|---------
---------||-------------2-------|------------------|----------------|---------
a - way Lit - tle___ lune. All

-------0--------|--------------------|----------|0--0-0-0--0--0-0-0-|---------
---2------2-----|-3-----------2------|---2------|0------------------|---------
---2---------2--|-4-----------2------|---2------|1------------------|---------
---2------------|-4-----------4------|---2------|2------------------|---------
---0------------|-2-----------4------|---0------|2------------------|---------
----------------|-------------2------|----------|0------------------|---------
day___ Lit - tle___ lune

-0--0---0---0---0---0--|-------------------|-----------|----2--------|--------
-----------------------|-3-----------2-----|---2-------|-3-----3-----|--------
-----------------------|-4-----------2-----|---2-------|-4--------4--|--------
-----------------------|-4-----------4-----|---2-------|-4-----------|--------
-----------------------|-2-----------4-----|---0-------|-2-----------|--------
-----------------------|-------------------|-----------|-------------|--------
Lit - tle___ lune. All

---------5---------|---------------|-------|----0--0---0---0--0--0-|--0-0-----
--2---------5------|--3------2-----|-2-----|-0---------------------|----------
--2--2----------2--|--4------2-----|-2-----|-1---------------------|----------
--2--2-------------|--4------4-----|-2-----|-2---------------------|----------
--0--0-------------|--2------4-----|-0-----|-2---------------------|----------
-------------------|---------------|-------|-0---------------------|----------
day Lit - tle lune.

-0---0----0-----0-|-----------------------------------------------------------
------------------|-2---------------------------------------------------------
------------------|-----------------------------------------------------------
------------------|-----------------------------------------------------------
------------------|-----------------------------------------------------------
------------------|-----------------------------------------------------------