rhcpfrance RhcpFrance
Concert du jour :
Louisville, KY - U.S.A
Sélection du moment :
Tablature

guitare Otherside



OTHERSIDE

from "Californication"
Music by KiedisFleaFruscianteSmith
Warner Bros. Music 1999
BUY THE TAB BOOK!>

TAB1 transcribed by mgibbons

intro
----------------------------------------------------
----------------------------------------------------
----------------------------------------------------
-----------------7--7--9--7-------------------------
-----7--7--7------------------10--7--------5--5--5--
----------------------------------------------------


----------------------------------------------------
----------------------------------------------------
----------------------------------------------------
--------------7--7--9--7----------------------------
-----7--7--7--------------10--7--7--7--5--5--5------
----------------------------------------------------
How long, how long.......

----------------------------------------------------
----------------------------------------------------
----------------------------------------------------
-------------7--7--9--7-----------------------------
----7--7--7--------------10--7--7--7--5--5--5-------
----------------------------------------------------


----------------------------------------------------
----------------------------------------------------
----------------------9--9--9-----------------------
-------------7--7--7----------9---9--9--------------
----7--7--7-----------------------------------------
----------------------------------------------------



The verses are like this:

Am Em
----------------8---------------------------------------------------15-
-------------------------------------------------------------12--------
-----------------------------------------------------------------------
----7--------------------------------------------14--------------------
----7--------------------------------------------14--------------------
----5--------------------------------------------12--------------------
pour my life into......

G A
---------3-------------------5----------------------
---------3-------------------5----------------------
---------4-------------------6----------------------
---------5-------------------7----------------------
---------5-------------------7----------------------
---------3-------------------5----------------------
..take it on the other side

***********************************************************************
***********************************************************************
TAB2

Transcribed by: ulps
Email: ulpen16@hotmail.com

intro
---------------------------------------------------
---------------------------------------------------
---------------------------------------------------
--------------7--7--9--7---------------------------
-----7--7--7--------------10--7--------5--5--5-----
---------------------------------------------------


---------------------------------------------------
---------------------------------------------------
---------------------------------------------------
--------------7--7--9--7---------------------------
-----7--7--7--------------10--7--7--7--5--5--5-----
---------------------------------------------------
How long, how long.......

---------------------------------------------------
---------------------------------------------------
---------------------------------------------------
-------------7--7--9--7----------------------------
----7--7--7--------------10--7--7--7--5--5--5------
---------------------------------------------------


---------------------------------------------------
---------------------------------------------------
----------------------9--9--9----------------------
-------------7--7--7----------9---9--9-------------
----7--7--7----------------------------------------
---------------------------------------------------

verse
(a) (b)
------------------------15----|-----3--------------5--
--13--------------12----------|-----3--------------5--
------------------------------|-----4--------------6--
------------------------------|-----5--------------7--
------------------------------|-----5--------------7--
------------------------------|-----3--------------5--
Verse form
(a) x3
(b) x1
(a) x3
(b) x3
heard your voice through a photograph........


chorus
----------------------------------------------------
----------------------------------------------------
----------------------------------------------------
-------------7--7--9--7-----------------------------
----7--7--7--------------10--7--7--7--5--5--5-------
----------------------------------------------------


----------------------------------------------------
----------------------------------------------------
----------------------------------------------------
-------------7--7--9--7-----------------------------
----7--7--7--------------10--7--7--7--5--5--5-------
----------------------------------------------------


----------------------------------------------------
----------------------------------------------------
---------------------9--9--9--9/12--12--12--12------
-------------7--7--7--------------------------------
----7--7--7-----------------------------------------
----------------------------------------------------
how long how long............

verse
(a) (b)
------------------------15----|-----3--------------5--
--13--------------12----------|-----3--------------5--
------------------------------|-----4--------------6--
------------------------------|-----5--------------7--
------------------------------|-----5--------------7--
------------------------------|-----3--------------5--
Verse form
(a) x3
(b) x1
(a) x3
(b) x3
Pour my life into a paper cup.......

chorus
--------------------------------------------------
--------------------------------------------------
--------------------------------------------------
-------------7--7--9--7---------------------------
----7--7--7--------------10--7--7--7--5--5--5-----
--------------------------------------------------


--------------------------------------------------
--------------------------------------------------
--------------------------------------------------
-------------7--7--9--7---------------------------
----7--7--7--------------10--7--7--7--5--5--5-----
--------------------------------------------------


--------------------------------------------------
--------------------------------------------------
----------------------9--9--9---------------------
-------------7--7--7-----------9----9--9----------
----7--7--7---------------------------------------
--------------------------------------------------

Bridge

|-------------Harmonics--------------------|
-----12-----12-------12---------------------------
--------------------------------12---12-----12----
--------------------------------------------------
--------------------------------------------------
--------------------------------------------------
--------------------------------------------------
Solo
------------------10/12--12-12-12---12h15--12-12-12h15-12-12h15-12--12h5--
--10--10-10-10-10---------------------------------------------------------
--------------------------------------------------------------------------
--------------------------------------------------------------------------
--------------------------------------------------------------------------
--------------------------------------------------------------------------

at this point, lead just continues to play notes from the solo, drops out,
and then comes back in with the solo.
dont know about the outro guitar.....cant pick it..

questions, comment, corrections. email me
ulpen16@hotmail.com