rhcpfrance
Prochain concert dans :
Flash info :
Forum, à la une :
Tablature

basse Search and Destroy



#----------------------------------PLEASE NOTE--------------------------------#
#This file is the author's own work and represents their interpretation of the#
#song. You may only use this file for private study, scholarship, or research.#
#-----------------------------------------------------------------------------#

Band : The Red Hot Chili Peppers

Song : Search And Destroy (live cover from Iggy Pop and The Stooges)

Album : none, just check out boots of Californication and BTW summer shows

Note : this is a very good cover. The band always jams for around 10 mins after it.


Tabbed by coco the aware, mail me at funkybassflea@hotmail.com


Intro and verses:
G|---------------------------|
D|---------------4-4-4-4-----|
A|-4-4---2-4-4-----------4-4-|
E|-----4---------------------|

G|---------------------------|
D|---------------4-4-4-4-----|
A|-4-4---2-4-4-----------4-4-|
E|-----4---------------------|

G|---------------------------------|
D|--------------2------------------|
A|-4-4-4-4-4-2---------------------|
E|----------------5-5-5-5-5-5-5--7-|

repeat 2 times



Little bridge ("I am the world's forgotten boy..." part) :
G|-------------------------------|
D|-------------------------------|
A|-4---4--2---2-------------0--2-|
E|---4------2---5-5-5--0--0------|

play very fast and repeat 2 times



Chorus ("somebody gotta help me please...") :
G|-------------------------------|
D|-------------------------------|
A|---------------------------2-4-|
E|-2-2-2-2-2-2-2-2-2-2-2-2-4-----|

G|-------------------------------|
D|-------------------------------|
A|---------------------------5-7-|
E|-5-5-5-5-5-5-5-5-5-5-5-5-7-----|

G|-------------------------------|
D|-------------------------------|
A|---------------------------2-4-|
E|-0-0-0-0-0-0-0-0-0-0-0-0-4-----|

G|--------------------------|
D|--------------------------|
A|--------------------------|
E|--4-4-4-4-4-4-4-4-4-4-4-4-|



Outro ("forgotten boy..."):
G|-------------------------|-------------------------|
D|-------------------------|-------------------------|
A|-4-4-4-4-4-4-4-4-4-4-4-4-|-2-2-2-2-2-2-2-2-2-2-2-2-|
E|-------------------------|-------------------------|

G|-------------------------|-------------------------|
D|-------------------------|-------------------------|
A|-5-5-5-5-5-5-5-5-5-5-5-5-|-2-2-2-2-2-2-2-2-2-2-2-2-|
E|-------------------------|-------------------------|



Variations on outro:
G|-----------------------------|
D|---------4--2----------------|
A|-4--4-4--------4--2--2-2-2-2-|
E|-----------------------------|

G|----------------------------|
D|------------0--2------------|
A|-0--0-0-2--------2--2-2-2-2-|
E|----------------------------|