rhcpfrance
Prochain concert dans :
Flash info :
Forum, à la une :
Tablature

basse Pea



Transcribed by Ricardo Ferreira (rscf@mithlond.esoterica.pt)
Each four dashes represents a pulsation.
Note that you will find, on this tablature, parts like -22-, -33-, -023-, etc.
This isn't a mistake this happens because the rhythm part of the song.
All comments and corrections are welcome so please email me.


Pea by Red Hot Chili Peppers

|------------------|------------------|------------------|------------------|
|--3-----3-3-----3-|------------------|------------------|------------------|
|------------------|--4-----4-4-----4-|--3-----3-3-----3-|--1-----1-1-----1-|
|------------------|------------------|------------------|------------------|
1 . 2 . 3 . 4 . 1 . 2 . 3 . 4 . 1 . 2 . 3 . 4 . 1 . 2 . 3 . 4 .
I'm a little pea I love the sky and the trees

|------------------|------------------|------------------|------------------|
|--3-----3-3-----3-|------------------|------------------|------------------|
|------------------|--4-----4-4-----4-|--3-----3-3-----3-|--1-----1-1-----1-|
|------------------|------------------|------------------|------------------|
1 . 2 . 3 . 4 . 1 . 2 . 3 . 4 . 1 . 2 . 3 . 4 . 1 . 2 . 3 . 4 .
I'm a teeny tiny little ant Checking out this

|------------------|------------------|------------------|------------------|
|--3-----3-3-----3-|------------------|------------------|------------------|
|------------------|--4-----4-4-----4-|--3-----3-3-----3-|--1-----1-1-----1-|
|------------------|------------------|------------------|------------------|
1 . 2 . 3 . 4 . 1 . 2 . 3 . 4 . 1 . 2 . 3 . 4 . 1 . 2 . 3 . 4 .
that I am nothing Ah Ah so you have nothing to hide

|------------------|------------------|------------------|------------------|
|--3-----3-3-----3-|------------------|------------------|------------------|
|------------------|--4-----4-4-----4-|--3-----3-3-----3-|--1-----1-1-----1-|
|------------------|------------------|------------------|------------------|
1 . 2 . 3 . 4 . 1 . 2 . 3 . 4 . 1 . 2 . 3 . 4 . 1 . 2 . 3 . 4 .
and I'm a pacifist So I can fuck your shit up


|------------------|------------------|------------------|------------------|
|3/5-----5-5-----5-|--8-----8-8-----8-|--3-----3-3-----3-|--3-3---33--33-034|
|------------------|------------------|------------------|------------------|
|------------------|------------------|------------------|------------------|
1 . 2 . 3 . 4 . 1 . 2 . 3 . 4 . 1 . 2 . 3 . 4 . 1 . 2 . 3 . 4 .
Oh Yeah I'm small

|------------------|------------------|------------------|------------------|
|--5-----5-5-----5-|--8-----8-8-----8-|--3-----3-3-----3-|--3-3---3---3---3-|
|------------------|------------------|------------------|------------------|
|------------------|------------------|------------------|------------------|
1 . 2 . 3 . 4 . 1 . 2 . 3 . 4 . 1 . 2 . 3 . 4 . 1 . 2 . 3 . 4 .
Oh Yeah Ah I'm small


|------------------|------------------|------------------|------------------|
|--2-----2-2-----2-|----------0---3---|--2-----2-2-----2-|----------0-------|
|------------------|--3-----3---------|------------------|--3-----3------0--|
|------------------|------------------|------------------|------------------|
1 . 2 . 3 . 4 . 1 . 2 . 3 . 4 . 1 . 2 . 3 . 4 . 1 . 2 . 3 . 4 .
Fuck you asshole You homophonic redneck dick

|------------------|------------------|------------------|------------------|
|--2-----2-2-----2-|----------0---3---|--2-----2-2-----2-|--0-----0-3-3---2-|
|------------------|--3-----3---------|------------------|------------------|
|------------------|------------------|------------------|------------------|
1 . 2 . 3 . 4 . 1 . 2 . 3 . 4 . 1 . 2 . 3 . 4 . 1 . 2 . 3 . 4 .
You're big and touch and macho you can kick my ass So fucking what

|------------------|------------------|------------------|------------------|
|-(2)2-2--22-2---2-|--0-----3-3-3---2-|--2-2-2-2-2-2-2-2-|--0-0-0-0-3-3-3-3-|
|------------------|------------------|------------------|------------------|
|------------------|------------------|------------------|------------------|
1 . 2 . 3 . 4 . 1 . 2 . 3 . 4 . 1 . 2 . 3 . 4 . 1 . 2 . 3 . 4 .
So fucking what

|------------------|------------------|------------------||
|--2---2-2-2-2-2-2-|--0-0-0-0-3-3-3-3-|--2---------------||
|------------------|------------------|------------000---||
|------------------|------------------|------------------||
1 . 2 . 3 . 4 . 1 . 2 . 3 . 4 . 1 . 2 . 3 . 4 .
So fucking what


Ricardo Ferreira
rscf@mithlond.esoterica.pt
--
Ricardo Sérgio Caetano Ferreira
--
corections by Srpy