rhcpfrance
Prochain concert dans :
Flash info :
Forum, à la une :
Tablature

basse True Men Don't Kill Coyotes




Artist - Red Hot Chili Peppers
Song - True Men Don't Kill Coyotes
Written/Performed - Red Hot Chili Peppers



Intro

Riff 1 Riff 2
G |----------7h9p7--|--------0h2-2----|
D |----7h9----------|----0---------2--|
A |-----------------|-----------------|
E |--0-----0--------|--0---0----------|

Riff 1 x2 + Riff 2 x1 = Intro


Verse
G |---------------|
D |---------------|
A |---------------|
E |--0-0-0-3-5-3--|

Chorus - Play Open D

G |---------------|
D |---------------|
A |--2-0-2-0------|
E |---------------|