rhcpfrance
Prochain concert dans :
Flash info :
Forum, à la une :
Tablature

basse F.U (Live)





Band : The Red Hot Chili Peppers

Song : Fuck You (Bemswa Swing) (live cover from Thelonious Monk)

Album : Out in L.A and boots like Tokyo Tattoo

Note : funny thing to jam on :)

Tabbed by coco the aware, mail-me at funkybassflea@hotmail.com


Main Theme:
G|---7-------7-5-4---------------|
D|-7-------7-------77-55-44------|
A|---------------------------4-5-|
E|-------------------------------|

Variations:
G|---12-------12-10-9-------------------| this the beggining on Out in LA
D|-12-------12-------1212-1010-99-------|
A|---------------------------------9-10-|
E|--------------------------------------|

G|---12-------12-10-9---------------------------------------|
D|-12-------12-------1212-1010-99---------------------------|
A|---------------------------------9-10---10-10-10-10-10-10-|
E|----------------------------------------------------------| then return to the main
theme

End :
G|-----------|
D|-----------|
A|-9------5--|
E|-----------|
"Fuck You"