rhcpfrance
Prochain concert dans :
Flash info :
Forum, à la une :
Tablature

basse Dark Necessities



[Intro]

G|------------------------------------------------------------------------------------------------|
D|-------------------------------------------------10-10-10-10-10-10-10-10-10-10-8-8-8-8-8-8-8-8-8| x4
A|11-11-11-11-11-11-11-11-11-11-8-8-8-8-8-8-8-8-8-8-----------------------------------------------|
E|------------------------------------------------------------------------------------------------|

[Verse] (Slapping and Popping)

G|---5-----3-5--------5-----3-5-------|
D|------------------------------------| x4
A|3-x---3-x----x-1--------------x-1/3-|
E|-----------------4-x---4-x----------|

G|------------------------------------|
D|---3----3-3--------6-----6-6--------|
A|------------------------------1/3---|
E|1-x--1x-----1-1/4x----4x------------|

G|---5-----3-5--------8-7-5--------|
D|---------------------------------|
A|3-x---3-x----1x1-3---------------|
E|---------------------------------|

G|---5-----3-5--------5-----3-5-------|
D|------------------------------------| x4
A|3-x---3-x----x-1--------------x-1/3-|
E|-----------------4-x---4-x----------|

G|------------------------------------|
D|---3----3-3--------6-----6-6--------|
A|------------------------------1/3---|
E|1-x--1x-----1-1/4x----4x------------|

G|---5-----3-5--------8-7-5-----|
D|------------------------------|
A|3-x---3-x----1x1-3------------|
E|------------------------------|

[Chorus]

G|----------------------------------------------------------------------------------------3--3-3-----|
D|6-6-6-6-6-6-6-x-6-6-6-6-5-5-3-3-3-3-3-x-3-3--3-3-6-5-3---------------------------------------------|
A|-------------------------------------------------------6-3-3-3-3-3-3-x-3-3-3-3-3/1-1-1-1--1----1-1-|
E|---------------------------------------------------------------------------------------------------|

G|----------------------------------------------------------------5-----5-----------------3--3-3-----|
D|6-6-6-6-6-6-6-x-6-6-6-6-5-5-3-3-3-3-3-x-3-3--3-3-6-5-3---------------------------------------------|
A|-------------------------------------------------------6-3-3-3-3-3-3-x-3-3-3-3-3/1-1-1-1--1----1-1-|
E|---------------------------------------------------------------------------------------------------|

[Verse]

G|---5-----3-5--------5-----3-5-------|
D|------------------------------------| x4
A|3-x---3-x----x-1--------------x-1/3-|
E|-----------------4-x---4-x----------|

G|------------------------------------|
D|---3----3-3--------6-----6-6--------|
A|------------------------------1/3---|
E|1-x--1x-----1-1/4x----4x------------|

G|---5-----3-5--------8-7-5--------|
D|---------------------------------|
A|3-x---3-x----1x1-3---------------|
E|---------------------------------|

[Chorus]

G|----------------------------------------------------------------------------------------3--3-3-----|
D|6-6-6-6-6-6-6-x-6-6-6-6-5-5-3-3-3-3-3-x-3-3--3-3-6-5-3---------------------------------------------|
A|-------------------------------------------------------6-3-3-3-3-3-3-x-3-3-3-3-3/1-1-1-1--1----1-1-|
E|---------------------------------------------------------------------------------------------------|

G|----------------------------------------------------------------5-----5-----------------3--3-3-----|
D|6-6-6-6-6-6-6-x-6-6-6-6-5-5-3-3-3-3-3-x-3-3--3-3-6-5-3---------------------------------------------|
A|-------------------------------------------------------6-3-3-3-3-3-3-x-3-3-3-3-3/1-1-1-1--1----1-1-|
E|---------------------------------------------------------------------------------------------------|

[Bridge]

G|8-7-5-----------------------------6-5-3---------------------------------------------------|
D|------8-6-5-----------------------------6-4-3---------------------------------------------|
A|------------8-6-5-----------------------------6-4-3---------------------------------------|
E|------------------8-6-4-3-2/4\2/6-----------------6-4-3-2/4\2/6---------------------------|

G|11-10-8------------------------------13-12-10---------------------------------------------|
D|--------11-10-8------------------------------13-12-10-------------------------------------|
A|----------------11-9-8--------------------------------13-11-10----------------------------|
E|-----------------------11-9-4/6\4/8----------------------------13-11-10-8/10--------------|

G|8-7-5-----------------------------6-5-3----------------------------------------------------|
D|------8-6-5-----------------------------6-4-3----------------------------------------------|
A|------------8-6-5-----------------------------6-4-3----------------------------------------|
E|------------------8-6-4-3-2/4\2/6------------------6-4-3-2/4\2/6---------------------------|

G|11-10-8-----------------------|
D|--------11-10-8---------------|
A|----------------11-9-8--------|
E|-----------------------11-9-8~|

[Verse]

G|---5-----3-5--------5-----3-5-------|
D|------------------------------------| x4
A|3-x---3-x----x-1--------------x-1/3-|
E|-----------------4-x---4-x----------|

G|------------------------------------|
D|---3----3-3--------6-----6-6--------|
A|------------------------------1/3---|
E|1-x--1x-----1-1/4x----4x------------|

G|---5-----3-5--------8-7-5--------|
D|---------------------------------|
A|3-x---3-x----1x1-3---------------|
E|---------------------------------|

[Chorus]

G|----------------------------------------------------------------------------------------3--3-3-----|
D|6-6-6-6-6-6-6-x-6-6-6-6-5-5-3-3-3-3-3-x-3-3--3-3-6-5-3---------------------------------------------|
A|-------------------------------------------------------6-3-3-3-3-3-3-x-3-3-3-3-3/1-1-1-1--1----1-1-|
E|---------------------------------------------------------------------------------------------------|

G|----------------------------------------------------------------5-----5-----------------3--3-3-----|
D|6-6-6-6-6-6-6-x-6-6-6-6-5-5-3-3-3-3-3-x-3-3--3-3-6-5-3---------------------------------------------|
A|-------------------------------------------------------6-3-3-3-3-3-3-x-3-3-3-3-3/1-1-1-1--1----1-1-|
E|---------------------------------------------------------------------------------------------------|

[Verse]

G|---5-----3-5--------5-----3-5-------|
D|------------------------------------| x4
A|3-x---3-x----x-1--------------1/3---|
E|-----------------4-x---4-x----------|

G|------------------------------------|
D|---3----3-3--------6-----6-6--------|
A|------------------------------1/3---|
E|1-x--1x-----1-1/4x----4x------------|

G|---5-----3-5--------8-7-5--------|
D|---------------------------------|
A|3-x---3-x----1x1-3---------------|
E|---------------------------------|

[Chorus]

G|----------------------------------------------------------------------------------------3--3-3-----|
D|6-6-6-6-6-6-6-x-6-6-6-6-5-5-3-3-3-3-3-x-3-3--3-3-6-5-3---------------------------------------------|
A|-------------------------------------------------------6-3-3-3-3-3-3-x-3-3-3-3-3/1-1-1-1--1----1-1-|
E|---------------------------------------------------------------------------------------------------|

G|----------------------------------------------------------------5-----5-----------------3--3-3-----|
D|6-6-6-6-6-6-6-x-6-6-6-6-5-5-3-3-3-3-3-x-3-3--3-3-6-5-3---------------------------------------------|
A|-------------------------------------------------------6-3-3-3-3-3-3-x-3-3-3-3-3/1-1-1-1--1----1-1-|
E|---------------------------------------------------------------------------------------------------|

[Solo]

G|-------------------------------------|
D|-------------------------------------|
A|------12\-----0-1-2-3-3-6-5-2------1-|
E|4--4-----1--------------------1--1---|

G|--------------------------------------|
D|--------------------------------------|
A|------12\-----0-1-2-3-3-6/8--8\6------|
E|4--4-----1-----------------------8\6/8|

G|---------------------------------------------------------------------5\3--------------3--3-3----|
D|6-6-6-6-6-6-6-x-6-6-6-6-5-5-3-3-3-3-3-x-3-3--3-3-6-5-3-------------------5\3--------------------|
A|-------------------------------------------------------6-3-3-3-3-3-3---------6\1-1-1-1--1----1-1|
E|------------------------------------------------------------------------------------------------|

G|-----------------------------------------------------------------5---------5-5-5-----------3--3-3-----|
D|6-6-6-6-6-6-6-x-6-6-6-6-5-5-3-3-3-3-3-x-3-3--3-3-6-5-3------------------------------------------------|
A|-------------------------------------------------------6-3-3-3-3---3-x-3-3--------3/1-1-1-1--1----1-1-|
E|------------------------------------------------------------------------------------------------------|

G|---------------------12~~~12-12\10-10-10-10\8--|
D|13~~~13-13\10~~10-10-10-~~10-10-8--8--8--8-\6--|
A|11~~~11-11-8~~~8--8----------------------------|
E|-----------------------------------------------|



********************************
| x Dead note
| / Slide up
| \ Slide down
********************************

Source:
https://tabs.ultimate-guitar.com/r/red_hot_chili_peppers/dark_necessities_btab.htm