rhcpfrance
Prochain concert dans :
Flash info :
Forum, à la une :
Tablature

guitare Green Heaven



From: sjdp@ultracom.net (Stephan Della Penna)
To: dwm3@po.cwru.edu
Subject: green heaven bass tab
Date: Mon, 06 Jan


here is what me and my friend got for green heaven by The Red Hot
Chili Peppers, on the Out in LA CD. the other version on The Red Hot
Chili Peppers CD is different, but not very different. here is what i
got

verse:
---------------------------------
0-----------------6-------5-------0
0------5---7----------------------0
--0------------------4--------3--

the part following the first verse -

----------------------------------
0---------5--3-----3---------------0
0---------------5------------------0
----3-----------------------------

then into the part about dolphins and stuff (unsure about this part)
this sign / (backslash) means hammer, this sign \ (frontslash) means
slide

--------------------------------------
0------4/5------------4/5-0------------0
0--0---------0---0------------7\5\3----0
--------------------------------------

the part before back to first verse

---------------------------------------
0---------------------------------------0
0---------------------------------------0
-----5--5----3--5--6-------------------


ending

----------------------------------------
0----------------------------------------0
0-------4/5------------------------------0
---0-----------5--4--3------------------