rhcpfrance
Prochain concert dans :
Flash info :
Forum, à la une :
Tablature

basse Fire



Fire
Words and Music by Jimi Hendrix
As recorded by the Red Hot Chili Peppers
From the album Mother's Milk

Bass
Fast

Intro and interlude after guutarsolo:
G-|---|---------|----------|---------|---------------|
D-|-6-|-5---3h5-|--------6-|-5---3h5-|---------------|
A-|---|---------|-5-5------|---------|-5-5-----0-3-5-|
E-|---|---------|----------|---------|---------------|

G-|----|-------|----|-------|
D-|----|-------|----|-------|
A-|-5--|-0-3-5-|-5--|-0-3-5-|
E-|----|-------|----|-------|

Verses:
G-|----|-------|----|-------|----|-------|--------5-------|
D-|----|-------|----|-------|----|-------|-----\7---7p5---|
A-|-5--|-0-3-5-|-5--|-0-3-5-|-5--|-0-3-5-|-5------------7-|
E-|----|-------|----|-------|----|-------|----------------|

Choruses:
G-|----------------|----------------|-----------------|----------------|
D-|----------------|----------------|-----------------|----------------|
A-|-5--5-5---------|----2-2-3-3-4-4-|-5-5-5-5---------|----2-2-3-3-4-4-|
E-|--------2-3-4-5-|--5-------------|---------2-3-4-5-|--5-------------|
Play chorus parts two times

Bridge:
G-|-----------------|-----------------|-----------------------|
D-|-----------------|-----------------|---7--7--7--7--7--7--7-|
A-|-5-5-5-5-5-5-5-5-|-3-3-3-3-3-3-3-3-|-0--0--0--0--0--0--0---|
E-|-----------------|-----------------|-----------------------|

G-|------------------------------------|
D-|------------------------------------|
A-|-3-3-3-3-3-3-3-3\15-15-15-15-15-15/-|
E-|------------------------------------|

Guitarsolo:
G-|----------------|----------------|-----------------|----------------|
D-|----------------|----------------|-----------------|----------------|
A-|-7--7-7---------|----4-4-5-5-6-6-|-7-7-7-7---------|----4-4-5-5-6-6-|
E-|--------4-5-6-7-|--7-------------|---------4-5-6-7-|--7-------------|

G-|----------------|----------------|-----------------|----------------|
D-|----------------|----------------|-----------------|-------------6--|
A-|-7--7-7---------|----4-4-5-5-6-6-|-7-7-7-7---------|----4-4-5-5-----|
E-|--------4-5-6-7-|--7-------------|---------4-5-6-7-|--7-------------|

End:
G-|---|---------|----------|---------|---------------|
D-|-6-|-5---3h5-|--------6-|-5---3h5-|---------------|
A-|---|---------|-5-5------|---------|-5-5-----0-3-5-|
E-|---|---------|----------|---------|---------------|


----

Guitar Solo---"ah move over and let mr huckleberry take over" part
repeat each several times
g-------7------------5h7----------5-------
d-----------------------------------------
a--5-----------0-0-----------3------------
e-----------------------------------------















Artist: Red Hot Chili Peppers
Song: "Fire"
Tabbed by: Julián O. Barrera
Comments or RHCP stuff? Kuckimonster2@aol.com

Intro:
G ---------------|
D -6-5---3-5-----|
A -----------5-5-|
E ---------------|

Verse:
G ----------|
D ----------|
A --0-3-5-5-|
E ----------|

Chorus: (4x) Live Version:
G ---------------------|----------------------|
D ---------------------|----------------------|
A -5-5--------22-33-44-|-5555--------22-33-44-|
E -----2345-5----------|------234555----------|

Bridge: (4x)
G ---------------|------|----------------------|
D ---------------|---5-7|----------------------|
A --5------3-----|00----|-3-3-3-3/15-15-15-15\-|
E ---------------|------|----------------------|

Solo #1: (3x) (1x)
G ---------------------|-----------------|
D ---------------------|-----------------|
A -7-7--------44-55-66-|-7-7--------44-5-|
E -----4567-7----------|-----4567-7------|

Solo #2:
G ------------------------------------------------------------------------------------|
D ------------------------------------------------------------------------------------|
A -7-7--------44-55-66--7-7--------44-55-66--5-5--------22-33-44--5-5--------22-33-44-|
E -----4567-7---------------4567-7---------------2345-5---------------2345-5----------|
This section is slapped live(2x)
G -------------------------------------------|--------------------------------|
D -------------------------------------------|--------------------------------|
A -7-7--------44-55-66--7-7--------44-55-6-x-|-5-5-5-5-5-5-5-5-3-3-3-3-3-3-3-3|
E -----4567-7---------------4567-7-----------|--------------------------------|