rhcpfrance
Prochain concert dans :
Flash info :
Forum, à la une :
Tablature

basse Behind The Sun



Behind the sun



Moderately =96
Intro
G|---------------------------------|--------------------------------------|
D|--7h6-5-4-3----------------------|--------------------------------------|
A|--------------7-7-6h5-4-4-4-3-3--|--------------------------------------|
E|---------------------------------|--7-7-6-6-6-5-5-4-3-3-3-3-2h1---------|

G|---------------------------------|--------------------------------------|
D|---------------------------------|--------------------------------------|
A|--------------4-4-4-4-4-5-4------|--7-5-5-5-4-4--------5-7--------------|
E|--5-5-5-5-5----------------------|----------------7-5-9-----------------|

G|---------------------------------|--------------------------------------|
D|---------------------------------|--------------------------------------|
A|---------------------------------|--------------------------------------|
E|--0-0-0-0-0-0-0-0-0-0-0-(0)------|--0-0-0-0-0-0-0-0-0-0-0-(0)-----------|

G|---------------------------------|--------------------------------------|
D|---------------------------------|--------------------------------------|
A|--------------4-4-4-4-4-5-4------|--7-5-5-5-4-4--------5-7--------------|
E|--5-5-5-5-5----------------------|----------------7-5-9-----------------|

G|---------------------------------|--------------------------------------|
D|---------------------------------|--------------------------------------|
A|---------------------------------|--------------------------------------|
E|--0-0-0-0-0-0-0-0-0-0-0-(0)------|--0-0-0-0-0-0-0-0-0-0-0-(0)-----------|
|
Verse 1 & 3:
(§)
G|---------------------------------|--------------------------------------|
D|---------------------------------|--------------------------------------|
A|---------------------------------|--------------------------------------|
E|--0-x-0-0-0-0-0-0-0-0-0-0--------|--0-x-0-0-0-0-0-0-0-0-0-0-------------|

G|---------------------------------|--------------------------------------|
D|---------------------------------|--------------------------------------|
A|---------------------------------|--------------------------------------|
E|--0-x-0-0-0-0-0-0-0-0-0-0--------|--0-x-0-0-0-0-0-0-0-0-0-0-------------|

G|---------------------------------|--------------------------------------|
D|---------------------------------|--------------------------------------|
A|---------------------------------|--------------------------------------|
E|--0-x-0-0-0-0-0-0-0-0-0-0--------|--0-x-0-0-0-0-0-0-0-0-0-0-------------|

G|---------------------------------|--------------------------------------|
D|---------------------------------|--------------------------------------|
A|---------------------------------|--------------------------------------|
E|--0-x-0-0-0-0-0-0-0-0-0-0--------|--0-x-0-0-0-0-0-0-0-0-0-0-------------|

G|---------------------------------|--------------------------------------|
D|--7h6-5-4\3-3--------------------|--------------------------------------|
A|----------------7-6-5-4-3--------|--------------------------------------|
E|----------------------------7-6-6|--5-4-4--3-3-3--2-2-2--1-1-1----------|

G|---------------------------------|--------------------------------------|
D|---------------------------------|--------------------------------------|
A|---------------------------------|--------------------------------------|
E|--0-x-0-0-0-0-0-0-0-0-0-0--------|--0-x-0-0-0-0-0-0-0-0-0-0-------------|

G|---------------------------------|--------------------------------------|
D|---------------------------------|--------------------------------------|
A|---------------------------------|--------------------------------------|
E|--0-x-0-0-0-0-0-0-0-0-0-0--------|--0-x-0-0-0-0-0-0-0-0-0-0-------------|

Chorus

G|---------------------------------|--------------------------------------|
D|---------------------------------|--------------------------------------|
A|--------------4-4-4-4-4-4-5------|--5/7-7-5-5-4-4-----------5-7---------|
E|--5-5-5-5-5----------------------|-------------------7-5-7--------------|

G|---------------------------------|--------------------------------------|
D|---------------------------------|--------------------------------------|
A|---------------------------------|--------------------------------------|
E|--0-0-0-0-0-0-0-0-0-0-0-(0)------|--0-0-0-0-0-0-0-0-0-0-0-(0)-----------|

G|---------------------------------|--------------------------------------|
D|---------------------------------|--------------------------------------|
A|--------------4-4-4-4-4-4-5------|--5/7-7-5-5-4-4------------5-7--------|
E|--5-5-5-5-5----------------------|-------------------7-5-7--------------|

G|---------------------------------|--------------------------------------|
D|---------------------------------|--------------------------------------|
A|---------------------------------|--------------------------------------|
E|--0-0-0-0-0-0-0-0-0-0-0-(0)------|--0-0-0-0-0-0-0-0-0-0-0-(0)-----------|

G|---------------------------------|--------------------------------------|
D|---------------------------------|--------------------------------------|
A|--------------4-4-4-4-4-4-5------|--5/7-7-5-5-4-4------------5-7--------|
E|--5-5-5-5-5----------------------|-------------------7-5-7--------------|

G|---------------------------------|--------------------------------------|
D|---------------------------------|--------------------------------------|
A|---------------------------------|--------------------------------------|
E|--0-0-0-0-0-0-0-0-0-0-0-(0)------|--0-0-0-0-0-0-0-0-0-0-0-(0)-----------|

to Coda ( #)
G|-9h11-9--------------------------|--------------------------------------|
D|---------11-9-7-9/11-11-9-7------|--------------------------------------|
A|------------------------------9-7|--9/11-9-9-7-----------5-7------------|
E|---------------------------------|---------------9-7-5-7----------------|

G|---------------------------------|--------------------------------------|
D|---------------------------------|--------------------------------------|
A|---------------------------------|--------------------------------------|
E|--0-0-0-0-0-0-0-0-0-0-0-(0)------|--0-0-0-0-0-0-0-0-0-0-0-(0)-----------|

Verse 2:

G|---------------------------------|--------------------------------------|
D|---------------------------------|--------------------------------------|
A|---------------------------------|--------------------------------------|
E|--0-x-0-0-0-0-0-0-0-0-0-0--------|--0-x-0-0-0-0-0-0-0-0-0-0-------------|

G|---------------------------------|--------------------------------------|
D|---------------------------------|--------------------------------------|
A|---------------------------------|--------------------------------------|
E|--0-x-0-0-0-0-0-0-0-0-0-0--------|--0-x-0-0-0-0-0-0-0-0-0-0-------------|

G|---------------------------------|--------------------------------------|
D|---------------------------------|--------------------------------------|
A|---------------------------------|--------------------------------------|
E|--0-x-0-0-0-0-0-0-0-0-0-0--------|--0-x-0-0-0-0-0-0-0-0-0-0-------------|

G|---------------------------------|--------------------------------------|
D|---------------------------------|--------------------------------------|
A|---------------------------------|--------------------------------------|
E|--0-x-0-0-0-0-0-0-0-0-0-0--------|--0-x-0-0-0-0-0-0-0-0-0-0-------------|

G|---------------------------------|--------------------------------------|
D|--7h6-5-4\3-3--------------------|--------------------------------------|
A|----------------7-6-5-4-3--------|--------------------------------------|
E|---------------------------7-6-6-|--5-4-4--3-3-3--2-2-2--1-1-1----------|

G|---------------------------------|--------------------------------------|
D|---------------------------------|--------------------------------------|
A|---------------------------------|--------------------------------------|
E|--0-x-0-0-0-0-0-0-0-0-0-0--------|--0-x-0-0-0-0-0-0-0-0-0-0-------------|

G|---------------------------------|--------------------------------------|
D|---------------------------------|--------------------------------------|
A|---------------------------------|--------------------------------------|
E|--0-x-0-0-0-0-0-0-0-0-0-0--------|--0-x-0-0-0-0-0-0-0-0-0-0-------------|
Chorus:

G|---------------------------------|--------------------------------------|
D|---------------------------------|------------------------------4-------|
A|--------------4-4-4-4-4-4-5------|--5/7-7-5-5-4-4---------4-5-----------|
E|--5-5-5-5-5----------------------|-------------------7-5----------------|

G|---------------------------------|--------------------------------------|
D|---------------------------------|--------------------------------------|
A|---------------------------------|--------------------------------------|
E|--0-0-0-0-0-0-0-0-0-0-0-(0)------|--0-0-0-0-0-0-0-0-0-0-0-(0)-----------|

G|---------------------------------|--------------------------------------|
D|---------------------------------|------------------------------4-------|
A|--------------4-4-4-4-4-4-5------|--5/7-7-5-5-4-4---------4-5-----------|
E|--5-5-5-5-5----------------------|-------------------7-5----------------|

G|---------------------------------|--------------------------------------|
D|---------------------------------|--------------------------------------|
A|---------------------------------|--------------------------------------|
E|--0-0-0-0-0-0-0-0-0-0-0-(0)------|--0-0-0-0-0-0-0-0-0-0-0-(0)-----------|

G|---------------------------------|--------------------------------------|
D|---------------------------------|------------------------------4-------|
A|--------------4-4-4-4-4-4-5------|--5/7-7-5-5-4-4---------4-5-----------|
E|--5-5-5-5-5----------------------|-------------------7-5----------------|

G|---------------------------------|--------------------------------------|
D|---------------------------------|--------------------------------------|
A|---------------------------------|--------------------------------------|
E|--0-0-0-0-0-0-0-0-0-0-0-(0)------|--0-0-0-0-0-0-0-0-0-0-0-(0)-----------|

G|-9h14-9--------------------------|--------------------------------------|
D|---------11-9-7-9/11-11-9-7------|--------------------------------------|
A|------------------------------9-7|--9/11-9-9-7-----------5-7------------|
E|---------------------------------|---------------9-7-5-7----------------|

G|---------------------------------|--------------------------------------|
D|---------------------------------|--------------------------------------|
A|---------------------------------|--------------------------------------|
E|--0-0-0-0-0-0-0-0-0-0-0-(0)------|--0-0-0-0-0-0-0-0-0-0-0-(0)-----------|

Interlude:

G|---------------------------------|--------------------------------------|
D|---------------------------------|--------------------------------------|
A|--0-x-0-0-0-0-0-0-0-0-0-0--------|--0-x-0-0-0-0-0-0-0-0-0-0-------------|
E|---------------------------------|--------------------------------------|

G|---------------------------------|--------------------------------------|
D|---------------------------------|--------------------------------------|
A|--0-x-0-0-0-0-0-0-0-0-0-0--------|--0-x-0-0-0-0-0-0-0-0-0-0-------------|
E|---------------------------------|--------------------------------------|

G|---------------------------------|--------------------------------------|
D|---------------------------------|--------------------------------------|
A|--0-x-0-0-0-0-0-0-0-0-0-0--------|--0-x-0-0-0-0-0-0-0-0-0-0-------------|
E|---------------------------------|--------------------------------------|

D.S.(§) al Coda (#)
G|---------------------------------|--------------------------------------|
D|---------------------------------|--------------------------------------|
A|--0-x-0-0-0-0-0-0-0-0-0-0--------|--------------------------------------|
E|---------------------------------|--5-x-5-5-5-5-5-5-(5)-7-7-7-----------|

Coda (#)
G|---------------------------------|--------------------------------------|
D|---------------------------------|--------------------------------------|
A|--9/11-9-9-7-----------5-7-------|--------------------------------------|
E|---------------9-7-5-7-----------|--0-0-0-0-----------------------------|

I hope you can understand my tabs, if you have any question
(or if you want to speak about CHILI PEPPERS)
Here my E-Mail:efremleaf@tiscalinet.it