rhcpfrance
Prochain concert dans :
Flash info :
Forum, à la une :
Tablature

guitare Hump De Bump



Hump De Bump Bass Tab by Red Hot Chili Peppers, www.Ultimate-Guitar.Com

Song: Hump De Bump
Artist: Red Hot Chili Pepper
Album: Stadium Arcadium
Bassist: Flea
Tabbed: Markus (FI)
Tuning: EADG

0:00
G----------------|
D--5--5--5--5--5-|
A----------------|
E----------------|

0:04
G-------------------------------------|
D-------------------------------------|
A--5--5---5--5-85---5--5---5--5----3--|
E--------------------------------35---|

G---------------------------------------------|
D--------------------------------107-5/7------|
A--5--5---5--5-85---5--5---5--5---------5--5--|
E---------------------------------------------|

G---------------------------------------------|
D---------------------------------------------|
A--5--5---5--5-85---5--5---5--5-85--85--------|
E---------------------------------------------|

0:30
G---------------------------------------|
D--------------9-10--------------9-10-9-|
A--5--5---5--5-------5--5---5--5--------| 2X
E---------------------------------------|

0:47
G----7-5-5----------------------|
D-------7-7-5-3-5---8-6-6-------|
A--5-------------------8-6--6-8-|
E-----------------6-------------|

G-------------------------------------3-5-|
D----7-5------5-3-------------1-3---5-----|
A-------7-5------5-3----1--1-3----3-------|
E--5---------3----------------------------|

G----7-5-5----------------------|
D-------7-7-5-3-5---8-6-6-------|
A--5-------------------8-6--6-8-|
E-----------------6-------------|


G-----------------------------------7-5-------|
D----7-5------5-3-------------1-3------7-5----|
A-------7-5------5-3----1--1-3----3-------7-6-|
E--5---------3--------------------------------|

1:04
G-----------------------------------------|
D-----------------------------------------|
A--5--5---5--5-----85---5--5---5--5-85----|
E--------------3/5------------------------|

G------------------------------------|
D------------------------------------|
A--5--5---5--5------5--5---5--5------|
E--------------53--------------3/5---|

1:30
G---------------------------------------|
D--------------9-10--------------9-10-9-|
A--5--5---5--5-------5--5---5--5--------| 2X
E---------------------------------------|

1:47
G----7-5-5----------------------|
D-------7-7-5-3-5---8-6-6-------|
A--5-------------------8-6--6-8-|
E-----------------6-------------|

G-------------------------------------3-5-|
D----7-5------5-3-------------1-3---5-----|
A-------7-5------5-3----1--1-3----3-------|
E--5---------3----------------------------|

G----7-5-5----------------------|
D-------7-7-5-3-5---8-6-6-------|
A--5-------------------8-6--6-8-|
E-----------------6-------------|


G-----------------------------------7-5-------|
D----7-5------5-3-------------1-3------7-5----|
A-------7-5------5-3----1--1-3----3-------7-6-|
E--5---------3--------------------------------|

2:22
G----------------------------|
D----------------------------|
A--3-3-3-3-3-5--3-3-3-6-3-5--| 4X
E----------------------------|

2:39
G---------------------------------------|
D--------------9-10--------------9-10-9-|
A--5--5---5--5-------5--5---5--5--------| 2X
E---------------------------------------|

2:56
G----7-5-5----------------------|
D-------7-7-5-3-5---8-6-6-------|
A--5-------------------8-6--6-8-|
E-----------------6-------------|

G-------------------------------------3-5-|
D----7-5------5-3-------------1-3---5-----|
A-------7-5------5-3----1--1-3----3-------|
E--5---------3----------------------------|

G----7-5-5----------------------|
D-------7-7-5-3-5---8-6-6-------|
A--5-------------------8-6--6-8-|
E-----------------6-------------|

G-------------------------------------3-5-|
D----7-5------5-3-------------1-3---5-----|
A-------7-5------5-3----1--1-3----3-------|
E--5---------3----------------------------|

G----7-5-5----------------------|
D-------7-7-5-3-5---8-6-6-------|
A--5-------------------8-6--6-8-|
E-----------------6-------------|

G-------------------------------------3-5-|
D----7-5------5-3-------------1-3---5-----|
A-------7-5------5-3----1--1-3----3-------|
E--5---------3----------------------------|

G----7-5-5----------------------|
D-------7-7-5-3-5---8-6-6-------|
A--5-------------------8-6--6-8-|
E-----------------6-------------|


G-----------------------------------7-5---------|
D----7-5------5-3-------------1-3------7-5------|
A-------7-5------5-3----1--1-3----3-------7-6-5-|
E--5---------3----------------------------------|