rhcpfrance
Prochain concert dans :
Flash info :
Forum, à la une :
Tablature

basse Blackeyed Blonde



Red Hot Chili Peppers
BLACKEYED BLONDE
TABBED BU TRUIJLLO
The speed and the difficulty of this song makes it hard to write the tablature.
I write here the easiest way that makes recognize it
Intro

G |------------------------------------------------------5-5------------
D |---------------------------------------------------------------------
A |--3(3)-5-3(3)-5----3(3)-5-3(3)-5----3(3)-5-3(3)-5---------3(3)-5-3(3)-5
E |---------------------------------------------------------------------

Verse
-> (5)
|
G |-----*--------5-5-----7-5-----*-------5-5-----4-5--------------------
D |---------------------------------------------------------------------
A |-3h5---3-3h5------0-0-----3h5---3-3h5-----0-0------------------------
E |---------------------------------------------------------------------
S P S S P P S S P P S P S S P P S S P P

chorus
G |---------------------------------------------------------------------
D |-----5h7----------------5h7--5-5---5h7-------------------------------
A |----------7-5--------------------7-----7-5---------------------------
E |-3h5----------8-5--3h5---------------------8-5-----------------------

final part of chorus
G |--------------------
D |--------------------
A |--------------------
E |-5--7---------------

Chorus variation
G |---------------------------------------------------------------------
D |------8h10-------------------8h10--8-8----8h10-----------------------
A |-----------10-8------------------------10------10-8------------------
E |--6h8-----------11--8---6h8-------------------------11-8-------------