rhcpfrance
Prochain concert dans :
Flash info :
Forum, à la une :
Tablature

guitare Baby Appeal



Baby Appeal
by the Red Hot Chili Peppers
off the album Red Hot Chili Peppers
tabbed by flea173@excite.com

Higher Part

h
E|-----------------------|
A|4-44-2-4---2-4---------|
D|---------24------------|
G|-----------------------|


h
E|-----------------------|
A|4-44-2-4---2-4---------|
D|---------24------------|
G|---------------3333-33-|


Lower Part:play once, then back to higher part


E|---------0-------------|
A|2-22--------2-22-------|
D|-----4-5---------4-5---|
G|--------------------3-5|


This is basically the song the higher part is pretty damm close,
the lower changes a little, but that is the basic thing.

flea173@excite.com aka Tim
Webmaster of www.flea.web.com