rhcpfrance
Prochain concert dans :
Flash info :
Forum, à la une :
Tablature

batterie Can't Stop



Here is Can't Stop for bass!! I believe that I am the first to tab out this song!
Tunning:Standard
Tabbed by: WannabeFunkyFlea

Intro through 0:21
--------------------------------------------------------------I
--------------------------------------------------------------I
-7-7-7-7-7-7-7-7-7-7-7-7-7-7-7-7-7-7-7-7-7-7-7-7-7-7-7-7-7...-I
--------------------------------------------------------------I

Flea comes in at 0:42 into the song;use light slapping techniques:
---7-9------7-9-------7-9-----7-9-------I-----------------------------------------I
--------------------0------0-0------0-0-I---9-9-----9-9--------10-10---12-10------I
-7-----7-7------7-7---------------------I-----------------------------------12/10-I
----------------------------------------I-7-----7-7-----7-7--8-----8-8------------I

---7-9------7-9--------7-9------7-9-------I--------------------------------------I
--------------------0------0-0-------0-0--I-----9-9-----9-9------10-10-----10-10-I
-7-----7-7------7-7-----------------------I--------------------------------------I
------------------------------------------I-5-7-----7-7----7-7--8------8-8-------I

---7-9----7-9---------7-9-----7-9----I-----------------------------------------I
------------------0------0-0-----00--I-------9-9------9-9------------10-10-10--I
-7----7-7-----7-7--------------------I-----------------------------------------I
-------------------------------------I-5-7-------7-7-------7-7--8-8-8----------I

Chorus at 1:15 through 1:34:
------------------------------------I-----------------------------------I
-----7-9h10/12----9P7-9-7--10/-12---I-----7h9h10/12-12-------/14-12-----I
-10------------------------------12-I-10----------------------------10--I
------------------------------------I-------------------7-8-------------I

------------------------------12-------I---------------------------I
-7h9--10/12-----9P7-----9--10-10h12----I-----7--9h10/12------------I
---------------------------------------I-10------------------------I
---------------------------------------I----------------------7-8--I
Back to verse at 1:35 through 2:17:

The chorus again at 2:18 through 2:37:

And then the Bridge at 2:38 through 3:19:

----9---------7-7------------------I----9-------------7-7---------------------------
---------(12)-----9-------12-------I-----------(12)--0----9----------12--------------
-7---7-7---------------------------I-7----7-7---------------------------------------
--------------------7-7-7---8-8-8--I------------------------7-7-7-------8-8-8--10-11-

----9------------7-----7-----------------------------------I
------------(12)----0----9-----9--12-----------------------I
-7----7-7-------------------------------------10h12--5-6-7-I
---------------------------7-7-------8-8-8-----------------I

---9------7--------------------------I
--------0----0-0--9----9----12-------I
-7---7-------------------------------I
--------------------7---7------8-8-8-I

Back to verse (including solo) at 3:20 through 4:22:

So there it is Can't Stop from a great band and a superb bass player!!!