rhcpfrance
Prochain concert dans :
Flash info :
Forum, à la une :
Tablature

basse Cant Stop



Intro
G|---------------------------------|---------------------------------|
D|---------------------------------|---------------------------------|
A|-7-7-7-7-7-7-7-7-7-7-7-7-7-7-7-7-|-7-7-7-7-7-7-7-7-7-7-7-7-7-7-7-7-|
E|---------------------------------|---------------------------------|

G|---------------------------------|---------------------------------|
D|---------------------------------|---------------------------------|
A|-7-7-7-7-7-7-7-7-7-7-7-7-7-7-7-7-|-7-7-7-7-7-7-7-7-7-7-7-7-7-7-7-7-|
E|---------------------------------|---------------------------------|

G|---------------------------------|---------------------------------|
D|---------------------------------|---------------------------------|
A|-7-7-7-7-7-7-7-7-7-7-7-7-7-7-7-7-|-7-7-7-7-7-7-7-7-7-7-7-7-7-7-7-7-|
E|---------------------------------|---------------------------------|

G|---------------------------------|---------------------------------|
D|---------------------------------|---------------------------------|
A|-7-7-7-7-7-7-7-7-7-7-7-7-7-7-7-7-|-7-7-7-7-7-7-7-------------------|
E|---------------------------------|---------------0-0-0-0-0-0-0-0-0-|

G|---------------------------------|---------------------------------|
D|---------------------------------|---------------------------------|
A|---------------------------------|---------------------------------|
E|---------------------------------|---------------------------------|


G|---------------------------------|---------------------------------|
D|---------------------------------|---------------------------------|
A|---------------------------------|---------------------------------|
E|---------------------------------|---------------------------------|


Verse
G|---------------------------------|---------------------------------|
D|---------------------------------|---------------------------------|
A|---------------------------------|---------------------------------|
E|---------------------------------|---------------------------------|

G|---------------------------------|---------------------------------|
D|---------------------------------|---------------------------------|
A|---------------------------------|---------------------------------|
E|---------------------------------|---------------------------------|

G|-----7---9---------7---9---X-----|-----7---9---------7---9---X-----|
D|---------------------------------|---------------------------------|
A|-7-----------7---7---X---X---7---|-5-----------5---5---X---X-------|
E|---------------------------------|-----------------------------5---|

G|---------------------------------|---------------------------------|
D|-----9---9---------9---9---X-----|-----10--10--------10--10--X-----|
A|---------------------------------|---------------------------------|
E|-7-----------7---7---X---X---7---|-8-----------8---8---X---X---8---|

G|-----7---9---------7---9---X-----|-----7---9---------7---9---X-----|
D|---------------------------------|---------------------------------|
A|-7-----------7---7---X---X---7---|-5-----------5---5---X---X-------|
E|---------------------------------|-----------------------------5---|

G|---------------------------------|---------------------------12--X-|
D|-----9---9---------9---9---X-----|-----10--10--------10--X---------|
A|---------------------------------|-------------------------10--X---|
E|-7-----------7---7---X---X---7---|-8-----------8---8---X-----------|

G|-----7---9---------7---9---X-----|-----7---9---------7---9---X-----|
D|---------------------------------|---------------------------------|
A|-7-----------7---7---X---X---7---|-5-----------5---5---X---X-------|
E|---------------------------------|-----------------------------5---|

G|---------------------------------|---------------------------------|
D|-----9---9---------9---9---X-----|-----10--10--------10--10--X-----|
A|---------------------------------|---------------------------------|
E|-7-----------7---7---X---X---7---|-8-----------8---8---X---X---8---|


CHORUS
G|---------------------------------|---------------------------------|
D|---------9-1012------------------|-9-------9---10------------x-1012|
A|-10---10-------------------------|-------12--12--------------------|
E|---------------------------------|---------------------------------|

G|---------------------------------|---------------------------------|
D|---------9-1012----------12------|-9-------9---10-------12/14-12\10|
A|-10----10------------------------|-------12--12--------------------|
E|---------------------------------|---------------------------------|

G|---------------------------------|-------12------------------------|
D|---------9-1012------------------|-9---------9-10----------10h12---|
A|-10------------------------------|---------------------------------|
E|---------------------------------|---------------------------------|

G|---------------------------------|---------------------------------|
D|---------9-1012------------------|-9-------10----------------------|
A|9/10-----------------------------|---------------------------------|
E|---------------------------------|---------------------------------|


VERSE
G|-----7---9---------7---9---X-----|-----7---9---------7---9---X-----|
D|---------------------------------|---------------------------------|
A|-7-----------7---7---X---X---7---|-5-----------5---5---X---X-------|
E|---------------------------------|-----------------------------5---|

G|---------------------------------|-------------------12--X---11--X-|
D|-----9---9---------9---9---X-----|-----10--10----------------------|
A|---------------------------------|-----------------10--X---9---X---|
E|-7-----------7---7---X---X---7---|-8-----------8-------------------|

G|-----7---9---------7---9---X-----|-----7---9---------7---9---X-----|
D|---------------------------------|---------------------------------|
A|-7-----------7---7---X---X---7---|-5-----------5---5---X---X-------|
E|---------------------------------|-----------------------------5---|

G|---------------------------------|---------------------------------|
D|-----9---9---------9---9---X-----|-----10--10--------10--10--X-----|
A|---------------------------------|---------------------------------|
E|-7-----------7---7---X---X---7---|-8-----------8---8---X---X---8---|

G|-----7---9---------7---9---X-----|-----7---9---------7---9---X-----|
D|---------------------------------|---------------------------------|
A|-7-----------7---7---X---X---7---|-5-----------5---5---X---X-------|
E|---------------------------------|-----------------------------5---|

G|---------------------------------|---------------------------------|
D|-----9---9---------9---9---X-----|-----10--10--------14--12--------|
A|---------------------------------|---------------------------1210-0|
E|-7-----------7---7---X---X---7---|-8-----------8-------------------|

G|-----7---9---------7---9---X-----|-----7---9---------7---9---X-----|
D|---------------------------------|---------------------------------|
A|-7-----------7---7---X---X---7---|-5-----------5---5---X---X-------|
E|---------------------------------|-----------------------------5---|

G|---------------------------------|---------------------------------|
D|-----9---9---------9---9---X-----|-----10--10--------10--10--X-----|
A|---------------------------------|---------------------------------|
E|-7-----------7---7---X---X---7---|-8-----------8---8---X---X---8---|


CHORUS
G|---------------------------------|-------12--12--------------------|
D|---------9-1012------------------|-9-------9---10-----------12109--|
A|-10---10-------------------------|---------------------------------|
E|---------------------------------|---------------------------------|

G|---------------------------------|-------12------------------------|
D|---------9-1012------------------|-9-------9---10---12/14----12109-|
A|-10---10-------------------------|---------------------------------|
E|---------------------------------|---------------------------------|

G|---------------------------------|---------------------------------|
D|---------9-1012------------------|-9-------9-12-10-------------9---|
A|-10----10------------------------|-------12----------------------12|
E|---------------------------------|---------------------------------|

G|---------------------------------|---------------------------------|
D|---------9-1012------------------|-9-------10----------------------|
A|-10----10------------------------|---------------------------------|
E|---------------------------------|---------------------------------|


BRIDGE
G|----14--14-----------------------|-14------------------------------|
D|---------------------------------|-----12------12------------------|
A|-12---------12-------------------|---------------------------------|
E|---------------------------------|--------10-----------------------|

G|---------------------------------|---------------------------------|
D|-----9---9-----------------------|-12--10------10------------------|
A|---------------------------------|---------------------------------|
E|-7-----------7-------------------|---------8-----------------------|

G|----14--14-----------------------|-14------------------------------|
D|---------------------------------|-----12------12------------------|
A|-12---------12-------------------|---------------------------------|
E|---------------------------------|--------10-----------------------|

G|---------------------------------|---------------------------------|
D|-----9---9-----------------------|-12--10------10------------------|
A|---------------------------------|---------------------------------|
E|-7-----------7-------------------|---------8-----------10------11--|

G|----14--14-----------------------|-14------------------------------|
D|---------------------------------|-----12------12------------------|
A|-12---------12-------------------|---------------------------------|
E|---------------------------------|--------10-----------------------|

G|---------------------------------|---------------------------------|
D|-----9---9-----------------------|-12--10------10------------------|
A|---------------------------------|---------------------1012--------|
E|-7-----------7-------------------|---------8-------------------1011|

G|----14--14-----------------------|-14------------------------------|
D|---------------------------------|-----12------12------------------|
A|-12---------12-------------------|---------------------------------|
E|---------------------------------|--------10-----------------------|

G|---------------------------------|---------------------------------|
D|-----9---9-----------------------|-12--10------10------------------|
A|---------------------------------|---------------------------------|
E|-7-----------7-------------------|---------8-----------------------|


INTERLUDE
G|-----7---9---------7---9---X-----|-----7---9---------7---9---X-----|
D|---------------------------------|---------------------------------|
A|-7-----------7---7---X---X---7---|-5-----------5---5---X---X-------|
E|---------------------------------|-----------------------------5---|

G|---------------------------------|---------------------------------|
D|-----9---9---------9---9---X-----|---10---10-------------12--------|
A|---------------------------------|------------------12h14---10h1210|
E|-7-----------7---7---X---X---7---|-8---x-x----8--------------------|


VERSE
G|-----7---9---------7---9---X-----|-----7---9---------7---9---X-----|
D|---------------------------------|---------------------------------|
A|-7-----------7---7---X---X---7---|-5-----------5---5---X---X-------|
E|---------------------------------|-----------------------------5---|

G|---------------------------------|-------------------12--X---14-X--|
D|-----9---9---------9---9---X-----|-----10--10----------------------|
A|---------------------------------|-----------------10--X---12--X---|
E|-7-----------7---7---X---X---7---|-8-----------8-------------------|

G|-----7---9---------7---9---X-----|-----7---9---------7---9---X-----|
D|---------------------------------|---------------------------------|
A|-7-----------7---7---X---X---7---|-5-----------5---5---X---X-------|
E|---------------------------------|-----------------------------5---|

G|---------------------------------|---------------------------------|
D|-----9---9---------9---9---X-----|-----10--10--------10--10--X-----|
A|---------------------------------|---------------------------------|
E|-7-----------7---7---X---X---7---|-8-----------8---8---X---X---8---|

G|-----7---9---------7---9---X-----|-----7---9---------7---9---X-----|
D|---------------------------------|---------------------------------|
A|-7-----------7---7---X---X---7---|-5-----------5---5---X---X-------|
E|---------------------------------|-----------------------------5---|

G|---------------------------------|---------------------------------|
D|-----9---9---------9---9---X-----|-----10--10--------10--10--X-----|
A|---------------------------------|---------------------------------|
E|-7-----------7---7---X---X---7---|-8-----------8---8---X---X---8---|

G|-----7---9---------7---9---X-----|-----7---9---------7---9---X-----|
D|---------------------------------|---------------------------------|
A|-7-----------7---7---X---X---7---|-5-----------5---5---X---X-------|
E|---------------------------------|-----------------------------5---|

G|---------------------------------|---------------------------------|
D|-----9---9---------9---9---X-----|-----10--10--------10--10--X-----|
A|---------------------------------|---------------------------------|
E|-7-----------7---7---X---X---7---|-8-----------8---8---X---X---8---|

G|-----7---9---------7---9---X-----|-----7---9---------7---9---X-----|
D|---------------------------------|---------------------------------|
A|-7-----------7---7---X---X---7---|-5-----------5---5---X---X-------|
E|---------------------------------|-----------------------------5---|

G|---------------------------------|---------------------------------|
D|-----9---9---------9---9---X-----|-----10--10--------10--10--X-----|
A|---------------------------------|---------------------------------|
E|-7-----------7---7---X---X---7---|-8-----------8---8---X---X---8---|

G|---------------------------------|---------------------------------|
D|---------------------------------|---------------------------------|
A|---------------------------------|---------------------------------|
E|---------------------------------|---------------------------------|

Source:
https://marlonwoersching.com/post-13-red-hot-chili-peppers-cant-stop-bass-cover-live-tabs