rhcpfrance
Prochain concert dans :
Flash info :
Forum, à la une :
Tablature

basse Around The World



Around The World
By the Red Hot Chili Peppers
From the album Californication
Tabbed by Robert Petersson (mr.schh@post.netlink.se) and Eric ? (eds@sfu.ca)

Intro
G|------------------|
D|------------------|
A|------------------|
E|--0------0-0-0-0--|

G|--7h9-9-7h9-9-7h9-9-7h9-9-9-7------|--7h9-9-7h9-9-7h9-9-7------------| (x4)
D|------------------------------9-7--|----------------------9-7--------|
A|-----------------------------------|--------------------------7-5----|
E|-----------------------------------|------------------------------7--|

Verse 1
G|----10-12-----9-10---10-12------------|----10-12-----9-10---10-12----------------|
D|-------------------------------3-2----|---------------------------------3-2------|
A|-----------------------------------1--|-------------------------------1-----3-1--|
E|--3-------0-1------3-------0-1--------|--3-------0-1------3-------0-1------------|

G|----10-12-----9-10---10-12---------|----10-12-----9-10---10-12-------------------|
D|-----------------------------------|---------------------------------------------|
A|---------------------------~3-~5---|-----------------------------1---1-3-5-8-10--|
E|--3-------0-1------3---------------|--3-------0-1------3-------3---3-------------|

Chorus 1
G|------13--------------12--12-----10--------------------| (x2)
D|---------10-13-------------------------10------10--10--|
A|--11-----------10--10--------8------11-----------------|
E|------------------------------------------8--8---------|

Verse 2
G|----10-12-----9-10---10-12------------|----10-12-----9-10---10-12------------------|
D|-------------------------------3-2----|---------------------------------3-2-3-2-3--|
A|-----------------------------------1--|-------------------------------1------------|
E|--3-------0-1------3-------0-1--------|--3-------0-1------3-------0-1--------------|

G|----10-12-----9-10---10-12--------|----10-12-----9-10---10-12-------------------|
D|----------------------------------|---------------------------------------------|
A|--------------------------~3-~5---|-----------------------------1---1-3-5-8-10--|
E|--3-------0-1------3--------------|--3-------0-1------3-------3---3-------------|

Chorus 2 (Same as Chorus 1)

Intro (Second & Third bar of Intro, but 4 times instead of 2)

"Bridge"
G|----10-12-----9-10---10-12--------------|
D|----------------------------12-10-------|
A|--------------------------------12-10~--|
E|--3-------0-1------3--------------------|

Verse 3 (Same as Verse 1)

Chorus 3 (Same as Chorus 1 with some variations, but 4 times)

Ending
G|-------------------|
D|--2-3-2------------|
A|--------5-5-5-5-5--|
E|-------------------|

G|-------------------------| (x13)
D|--------2-3-2------------|
A|----3---------5-5-5-5-5--|
E|--5---5------------------|


Last 2 Bars
G|------------------------------|-------------------------------|
D|--------2-3-2-----------------|--------2-3-2------------------|
A|----3---------5-/10-10-10-10--|----3---------5-/12-12-12-12\--|
E|--5---5-----------------------|--5---5------------------------|










Alexander Ong (ahleckxs@hotmail.com

Around the World [Red Hot Chili Peppers]

INTRO

G|-----------------|-----------------|
D|-----------------|-----------------|
A|-----------------|-----------------|
E|-0---------------|-0---0---0---0---|


G|-------------------------------------------------|
D|-12h14-14-12h14-14-12h14-14-12h14p12-------------|
A|-------------------------------------14-13-12----|
E|----------------------------------------------15-|
(Repeat 4x)
G|-------------------------------------------------|
D|-12h14-14-12h14-14-12h14-14-12-------------------|
A|-------------------------------14-13-12-10-------|
E|-------------------------------------------12-10-|

G|-----------|
D|-----------|
A|-----------|
E|-3/10break-|

VERSE 1

G|---10-12-----9-10-|---10-12-----10-9---|
D|------------------|------------------8-|
A|------------------|--------------------|
E|-3-------1-3------|-3-------1-3--------|

G|---10-12-----9-10-|---10-12---------------|
D|------------------|---------------3-2-----|
A|------------------|-------------1-----3-1-|
E|-3-------1-3------|-3-------1-3-----------|

G|---10-12-----9-10-|---10-12-----------|
D|------------------|-------------------|
A|------------------|---------3^^^------|
E|-3-------1-3------|-3------------6^^^-|

G|---10-12-----9-10-|---10-12-------------|
D|------------------|-----------------3-5-|
A|------------------|-------------1-5-----|
E|-3-------1-3------|-3-------1-3---------|

CHORUS 1

G|---13-------------------------------------|
D|-6----10-13-------12-12------10-----------|
A|------------10-10-------8-11--------10-10-|
E|--------------------------------8-8-------|

G|----13-------------------------------------------------|
D|-------10-13-------12-12------10-----------------------|
A|-11----------10-10-------8-11--------10-10/19\x--------|
E|---------------------------------8-8------------3break-|

VERSE 2

G|---10-12-----9-10-|---10-12-----10-9---|
D|------------------|------------------8-|
A|------------------|--------------------|
E|-3-------1-3------|-3-------1-3--------|

G|---10-12-----9-10-|---10-12-----------------|
D|------------------|---------------3-2-3-2-3-|
A|------------------|-------------1-----------|
E|-3-------1-3------|-3-------1-3-------------|

G|---10-12-----9-10-|---10-12-----------|
D|------------------|-------------------|
A|------------------|---------3^^^------|
E|-3-------1-3------|-3------------6^^^-|

G|---10-12-----9-10-|---10-12---------|
D|------------------|---------------3-|
A|------------------|-------------1---|
E|-3-------1-3------|-3-------1-3-----|

CHORUS 2

G|---13-------------------------------------|
D|-6----10-13-------12-12------10-----------|
A|------------10-10-------8-11--------10-10-|
E|--------------------------------8-8-------|

G|----13-------------------------------------------|
D|-------10-13-------12-12------10-----------------|
A|-11----------10-10-------8-11--------10-10/19^^^-|
E|---------------------------------8-8-------------|

INTERLUDE

G|-------------------------------------------------|
D|-12h14-14-12h14-14-12h14-14-12h14p12-------------|
A|-------------------------------------14-13-12----|
E|----------------------------------------------15-|
(Repeat 4x)
G|-------------------------------------------------|
D|-12h14-14-12h14-14-12h14-14-12-------------------|
A|-------------------------------14-13-12-10-------|
E|-------------------------------------------12-10-|

G|---10-12-----9-10-|---10-12---12-10-------|
D|------------------|-----------------12-10-|
A|------------------|-----------------------|
E|-3-------1-3------|-3---------------------|

VERSE 3

G|---10-12-----9-10-|---10-12-----10-9---|
D|------------------|------------------8-|
A|------------------|--------------------|
E|-3-------1-3------|-3-------1-3--------|

G|---10-12-----9-10-|---10-12---------------|
D|------------------|---------------3-2-----|
A|------------------|-------------1-----3-1-|
E|-3-------1-3------|-3-------1-3-----------|

G|---10-12-----9-10-|---10-12-----------|
D|------------------|-------------------|
A|------------------|---------3^^^------|
E|-3-------1-3------|-3------------6^^^-|

G|---10-12-----9-10-|----------------------------|
D|------------------|-------------------0---3-5--|
A|------------------|-----------1---1-3---3------|
E|-3-------1-3------|-3-1-0-1-3---3--------------|

CHORUS 3

G|-------8-|--------------------|-------------|---5-5-----------|
D|-6---6---|---5--5-------5---5-|-3-3-5-6-5-3-|-----------------|
A|---6-----|-5--5---------------|-------------|-3-------3---3---|
E|---------|--------3-3-3---3---|-------------|-------3---3---6-|

G|---------------|-----------|-------------------|--------------0-|
D|---------------|-----------|-----------------1-|--------1-1-3---|
A|-------6-5-3---|-----------|-------------1-1---|-3-3--3---------|
E|-4-0-4-------6-|-3--3-3--3-|-1-1-3-3-4-4-------|----------------|

G|-------|----------------|-------|-----------------|
D|-6---6-|---5---5--------|-3-5-3-|---5-------------|
A|---6---|-5---5----------|-------|-3---3-3-5-6-5-3-|
E|-------|---------3-3--3-|-------|-----------------|

G|-----------------|--------|---------------|
D|-----------------|--------|---3-5-6-5-3-1-|
A|-------6---------|--------|---------------|
E|-4-0-4---0-4-0-4-|-3-3--3-|-1-------------|

OUTRO

G|-----------------|
D|-2-3-2-----------|
A|-------5-5-5-5-5-|
E|-----------------|

G|-----------------------|
D|-------2-3-2-----------| (Repeat 13x)
A|-0-3-0-------5-5-5-5-5-|
E|-----------------------|

G|-----------------------------|-------------------------------|
D|-------2-3-2-----------------|-------2-3-2-------------------|
A|-0-3-0-------5-5/10-10-10-10-|-0-3-0-------5-5/12-12-12-12\x-|
E|-----------------------------|-------------------------------|

----------------------------------------------------------------------------

I don't need to correct this fully because the tab below ain't too bad. But I reckon
the intro is the only part which is significantly wrong.
It's a different riff and having watched Flea playing it, I think
he tends to start with the E note at the 14th fret on the second string so it should go:

G----------------------------------------------------
D--12h14-14-12h14-14-12h14-14-12h14p12---------------
A--------------------------------------14-13-12------
E-----------------------------------------------15---

G---------------------------------------------------
D--12h14-14-12h14-14-12h14-14-12--------------------
A--------------------------------14-13-12-10--------
E--------------------------------------------12-10--

This sounds right and Guitar World tabbed it similarly, but in the wrong position.

Any comments etc: p.fivey@dundee.ac.uk

---------------------------------------------------------------------------------------------
Around the World
By the Red Hot Chili Peppers
Tabbed by: Leo Angelo Lopez (kleng2@hotmail.com)

The transcription of Robert Petersson (mr.schh@post.netlink.se) needs some
corrections and here it is:


The Intro of Mr. Petersson is correct...
Intro:
G|--------------------|
D|--------------------|
A|--------------------|
E|--0------0-0-0-0----|

G|--7h9-9-7h9-9-7h9-9-7h9-9-9-7------|
D|------------------------------9-7--|
A|-----------------------------------|
E|-----------------------------------|

G|--7h9-9-7h9-9-7h9-9-7------------| (x4)
D|----------------------9-7--------|
A|--------------------------7-5----|
E|------------------------------7--|

Some notes on the verse needs an octave higher
1st Verse w/ verse variation #1:

G|----10-12-----9-10---10-12-----10-9----|
D|------------------------------------8--|
A|---------------------------------------|
E|--3-------1-3------3-------1-3---------|

G|----10-12-----9-10---10-12----------------|
D|---------------------------------3-2------|
A|-------------------------------1-----3-1--|
E|---------------------------1-3------------|

G|----10-12-----9-10---10-12--------|---10-12-----9-10---10-12--|
D|----------------------------------|---------------------------|
A|---------------------------~3-~1--|---------------------------|
E|--3-------1-3------3--------------|--3------1-3------3--------|

Verse variation #1: Verse variation #2:

G|---------------| G|--------------------|
D|---------------| D|--------------------|
A|------1-x-3-5--| A|----1---1-3-5-8-10--|
E|--1-3----------| E|--3---3-------------|

Chorus 1:

G|----------------------------------------------| (x2)
D|-------10-13-----12--12-------10-------10-----|
A|--11-x--------10--------8--11-------------10--|
E|---------------------------------8--8---------|

2nd Verse with verse variation #1:

G|----10-12-----9-10---10-12------10-9--|
D|--------------------------------------|
A|--------------------------------------|
E|--3-------1-3------3-------1-3--------|

G|----10-12-----9-10---10-12------------------|
D|---------------------------------3-2-3-2-3--|
A|-------------------------------1------------|
E|--3-------1-3------3-------1-3--------------|

G|----10-12-----9-10---10-12--------|----10-12-----9-10---10-12--|
D|----------------------------------|----------------------------|
A|---------------------------~3-~1--|----------------------------|
E|--3-------1-3------3--------------|--3-------1-3------3--------|

Chorus 2 (same as chorus 1)

Intro (second and third bar of Intro, but 4 times instead of 2)

G|----10-12-----9-10---10-12----------------|
D|----------------------------x12-10--------|
A|-----------------------------------12-10--|
E|--3-------1-3------3----------------------|

These are the variations on the Last Chorus
Last Chorus:

G|-------------------------------------------|
D|-----13----13----12-12-----/6-6-5-3-----5--|
A|--11----11----10-------8-8----------3-3----|
E|-------------------------------------------|

G|-------------x7----------------------------------| (x2)
D|--6-6-x6-5-5-------------------------------------|
A|----------------------------1-1-3-x3-1-3-5-8-10--|
E|----------------1-1-3-3-4-4----------------------|

Outro/Ending:

G|-------------------|-------------------------| (x13)
D|--0-3-2------------|--------0-3-2------------|
A|--------5-5-5-5-5--|----3---------5-5-5-5-5--|
E|-------------------|--5---5------------------|

G|------------------------------|-------------------------------|
D|--------0-3-2-----------------|--------0-3-2------------------|
A|----3---------5-/10-10-10-10--|----3---------5-/12-12-12-12\--|
E|--5---5-----------------------|--5---5------------------------|

I'm from the Philippines, Pasig City & if there are any interested party
who is looking for a bass guitarist, just email me at
kleng2@hotmail.com or kleng29@listbot.com
The King of the 4-string magics!!!