rhcpfrance
Prochain concert dans :
Flash info :
Forum, à la une :
Tablature

basse Dr Funkenstein (Live)



#----------------------------------PLEASE NOTE--------------------------------#
#This file is the author's own work and represents their interpretation of the#
#song. You may only use this file for private study, scholarship, or research.#
#-----------------------------------------------------------------------------#

Band : The Red Hot Chili Peppers

Song : Dr Funkenstein (live cover from Funkadelic)

Album : Under The Covers and shows of MM era

Note : this is a great cover !

Tabbed by coco the aware, mail me at funkybassflea@hotmail.com


Intro:
G|---------------------|
D|--------/7-5---5-5-4-|
A|---------------------|
E|-1--3----------------|

repeat two times


Main:
G|-------------------------------------------------------------------------------|
D|------------------------------34531-------------------3-4----------------34531-|
A|-5p3---2-3-----3----3h5--2h3----------3----5--3---3--------3----3h5--2h3-------|
E|-----5-------5---5-------------------5---5----------------5---5----------------|

repeat two times



Repeat the whole thing 2 times