rhcpfrance
Prochain concert dans :
Flash info :
Forum, à la une :
Tablature

basse Jungle Man



Jungle man
Tabbed by Truijllo

Main riff

G |---------------------------------------------------------------------
D |------4----------4-------------4------------2-----4------------------
A |---------------------------------------------------------------------
E |-0/2----2-0--0/2---2-0-2---0/2----2-0---0/2---0/2--------------------
S P S S S P S S S S P S S S P S P
Intro /chorus
G |------------2-----4--------------------------------------------------
D |------4--------------------------------------------------------------
A |---------------------------------------------------------------------
E |--0/2---0-2----2-----------------------------------------------------
S P S S P S P
rIFF 2
G |---------------------------------------------------------------------
D |----7----------------7--------------------7--------------5-----------
A |------5-5-6-6-7-7------5-5-6-6-7-7-5-5-------...-------5---5-3-------
E |-5-----------------5--------------------5----------------------2-0---